PrimaNota.ru - самый крупный в мире бесплатный архив песенных текстов, аккордов, табулатур и нот


Jeff Williams - Caffeine - таба, видео

Регистрация Запомнить меня
Войти через:  Facebook Google Twitter Vk Yandex Mail.ru

Jeff Williams - Caffeine - таба, видео

Печатать
Просмотров: 101
Уроки эстрадного вокала в Санкт-Петербурге
-------------------------------------------------------------------------------
                             CAFFEINE - JEFF WILLIAMS
-------------------------------------------------------------------------------
Tabbed by: OJAM20
E-mail: ojam20@hotmail.com

This is my first tab, so try to not flame me too much.
Anyway, this is what I make out of it and to play right, you gotta listen to the song a lot.

Tuning: (E A D G B E)

e|---------------------------------------------------------------------------|
B|---------------------------------------------------------------------------|
G|---------------------------------------------------------------------------|
D|------------3h5---3h5-----3h5-----3h5-------3h5---3h5-----3h5-----3h5------|
A|---------------------------------------------------------------------------|
E|--12\----3------3-----3-3-----3-3-----3-3-------3-----3-3-----3-3-----3-3--|

e|---------------------------------------------------------------------------|
B|---------------------------------------------------------------------------|
G|--------------------------------3-3-3-----------7-6-5-3--------------------|
D|--3h5---3h5-----3h5-----3h5-----------3-5-3-------------5-3----3h5---3h5---|
A|--------------------------------------------5-3----------------------------|
E|------3-----3-3-----3-3-----3-3-----------------------------3------3-------|

e|---------------------------------------------------------------------------|
B|---------------------------------------------------------------------------|
G|---------------------------------------------------------------------------|
D|------3h5-----3h5------3h5---3h5-----3h5-----3h5------3h5---3h5-----3h5----|
A|---------------------------------------------------------------------------|
E|--3-3-----3-3-----3-3------3-----3-3-----3-3-----3-3------3-----3-3--------|

e|---------------------------------------------------------------------------|
B|---------------------------------------------------------------------------|
G|------------5--7p5-3--5-3--------------------------------------------------|
D|------3h5-----------------5-3---3-5-5--------------------------------------|
A|------------------------------5-------1-1-1-1------------------------------|
E|--3-3-----3----------------------------------------------------------------|


************************************

| /   slide up
| \   slide down
| h   hammer-on
| p   pull-off
| ~   vibrato
| +   harmonic
| x   Mute note
| b   Bend
| pb  Pre-bend
| br  Bend release
| pbr Pre-bend release
| brb Bend release bend

************************************
Добавлено: 01.10.2015
Другие материалы по этой песне:
  • Аккорды и текст

Страница создана 01.10.2015
http://primanota.ru/jeff-williams/caffeine-chords.htm
Привет, Гость.
Предлагаем пройти революционный курс по гитаре.
Подарок от PrimaNota.Ru, забирай!