PrimaNota.ru - самый крупный в мире бесплатный архив песенных текстов, аккордов, табулатур и нот


Jeff Williams - I Burn - аккорды и текст, таба, видео

Регистрация Запомнить меня
Войти через:  Facebook Google Twitter Vk Yandex Mail.ru

Jeff Williams - I Burn - аккорды и текст, таба, видео

Печатать
Просмотров: 256
I Burn
Jeff Williams
Chords: These are posted first as full chords and second as power chords
Em    | 022000 | 022XXX
C     | X32010 | X355XX
F#dim | 2345X2 | 234XXX
B     | X24442 | X244XX
Am    | X02210 | 577XXX
C#m   | X46654 | X466XX
A     | X02220 | 577XXX
E     | 022100 | 022XXX *
B/D#  |        | X698XX

*In the chorus it is easier to play E as X799XX as the transition from E to B/D# is made easier

Intro: Em | C | F#dim | B

Verse 1: (Intro chords)
Em          C               F#dim         B
Come at me, and you'll see, I'm more than meets the eye
Em              C                F#dim        B
You think that, you'll break me, you're gonna find in time

Prechorus 1:
       C                       Am                  
You're standing too close to a flame that's burning
F#dim                      Em
Hotter than the sun in the middle of July
C                               Am
Sending out your armies but you still can't win
F#dim                          B 
Listen up silly boy 'cause I'm gonna tell you why---

Chorus:
  C#m         A       B
I burn, can't hold me down
            E  B/D#             
And there's nothing 
  C#m        A       B
I burn, swing all you want
       E          B/D#
Like a fever I'll take you down

Solo 1:
The chords here are unusual because it's melodic guitar and drums only. The solo is essentially chromatically
descending arpeggios of tritones, starting from Gdim.

e|-----------------------------|-----------------------------|-------------------------|
B|-----------------------------|-----------------------------|-------------------------|
G|-----------------------------|-----------------------------|-------------------------|
D|------5-------4-------3------|------5-----4-------3--------|------5------4-3---------|
A|--4-------3-------2------2---|--4-----------3-------2------|--4--------3-----2----2--|
E|----3-------2-------1--------|----3-----2-------1----------|----3----2---------1-----|

e|---------------------------------|
B|---------------------------------|
G|--------6-7----------------------|
D|------5-----6--------------------|
A|----4---------5----3-2--0--------|
E|--3-------------4----------3--0--|

Verse 2: (Same chords as Verse 1)
Em              C             F#dim         B
Reign supreme, in your dreams, you'll never make me bow
Em          C                 F#dim     B
Kick my ass, I'm world class, and Super Saiyan now

Prechorus 2: (Same chords as prechorus 1)
       C                       Am   
You're starting up a fight that you just can't finish
F#dim                      Em
Watch their little hearts as they scrape you off the floor
C                  Am
Bringing out your rockets well shoot 'em up baby
F#dim                          B 
High as you can go but I'm the one who's gonna soar---

Chorus:
  C#m         A       B
I burn, can't hold me down
            E  B/D#             
And there's nothing 
  C#m        A       B
I burn, swing all you want
       E          B/D#
Like a fever I'll take you down


Bridge:
F#m                C#m
It doesn't have to be this way
F#m                    G#m
Let's kiss and make up then you'll learn
F#m                C#m
You can fight your life away
(In this next part I usually play octaves in unison with the vocals)
    G#    F#  G# A    B  C#    B  A   G#  F#   E    D#  C#
But I get what I want so don't bother and just watch me burn

e|---------------------------------------------------------------------------|
B|--9-9--7--9-10-12-14-12-10-9-7--5------------------------------------------|
G|-----------------------------------8-6-------------------------------------|
D|--6-6--4--6-7--9--11-9--7--6-4--2------------------------------------------|
A|-----------------------------------6-4-------------------------------------|
E|---------------------------------------------------------------------------|

Rap:
The first half of the rap has no chords.

Hotter than the sun, feel my fire, pyromaniac my desire.
Thought that you could see the truth, til I just burned down the booth.
Human torch can't fuck with me, Johnny Blaze? Suspect B.
Strike them quick, lightning fast, melt them b****es down to ash.

The second half has the Verse chords in it
Em                  C            
Gasoline, Kerosine, strike the match ignite the scene
F#dim                        B
Shit will never be the same, feel the fury of my flame
Em                           C
Beg for mercy it won't help, embrace the ending you were dealt.
F#dim                             B
Seems you fucks will never learn, now sit back and watch me burn.

Solo: (Sorry, my ears aren't that good. If someone can tab the solo that would be fantastic)
C | Am | F#dim | Em | C | Am | F#dim | B | B/D#|

Chorus (x2):
  C#m         A       B
I burn, can't hold me down
            E  B/D#             
And there's nothing 
  C#m        A       B
I burn, swing all you want
       E          B/D#
Like a fever I'll take you down
  C#m         A       B
I burn, can't hold me down
            E  B/D#             
And there's nothing 
  C#m        A       B
I burn, swing all you want
       E          B/D#
Like a fever I'll take you down
Finish on C#m
Добавлено: 17.07.2015
Другие материалы по этой песне:
  • Аккорды и текст

Страница создана 17.07.2015
http://primanota.ru/jeff-williams/i-burn-chords.htm
Привет, Гость.
Предлагаем пройти революционный курс по гитаре.
Подарок от PrimaNota.Ru, забирай!