PrimaNota.ru - самый крупный в мире бесплатный архив песенных текстов, аккордов, табулатур и нот


Jeff Beck - Nessun Dorma - таба, видео

Регистрация Запомнить меня
Войти через:  Facebook Google Twitter Vk Yandex Mail.ru

Jeff Beck - Nessun Dorma - таба, видео

Печатать
Просмотров: 220
Okay first off this song is whammy bar heavy so if you have a whammy bar, your going to
be using it a lot, if you don't then you'll have to add the vibrato  yourself, I've
tabbed this song to show you where to add vibrato so you should be able to play it 
without a whammy bar

Jeff Beck - Nessun Dorma

Emotion and Commotion - 20120



e--------------------------------------------------------|
B--3-3-3-3~----------3-3-3~------------------------------|
G----------------------------5-r-4~---4-4-4-r-3----------|
D-----------------------------------------------4-4-b-5~-|
A-----------5-5-5-5~-------------------------------------|
E--------------------------------------------------------|


e--2~--0-----------------------------------------|
B--------3~--3-3~----1-0~------------------------|
G--------------------------4-4-4-r-3~------------|
D--------------------------------------4-4-b-5~--|
A------------------------------------------------|
E------------------------------------------------|


e----0-b-2-r-0---0------0-2-b-3-r-2-0-2---------0~-|
B--3-----------3---2-0~-----------------3--2~-3~---|
G--------------------------------------------------|
D--------------------------------------------------|
A--------------------------------------------------|
E--------------------------------------------------|


e--2-3-5~-5~-5~-2~-2~-2-2-2----------------0~---------|
B---------------------------3-----------------2~-b-3~-|
G-----------------------------2~--2-2-2-2-------------|
D-----------------------------------------------------|
A-----------------------------------------------------|
E-----------------------------------------------------|


e-----------------14~-12------------------------|
B--15-15~-13-12~----------15~-------------------|
G------------------------------16-r-15----------|
D--------------------------------------16-b-17--|
A-----------------------------------------------|
E-----------------------------------------------|


e-----12-14-12----12----------12-14-15-14-12-14------------12~-|
B--15----------15----14-r-12~-------------------15--14~-15~----|
G--------------------------------------------------------------|
D--------------------------------------------------------------|
A--------------------------------------------------------------|
E--------------------------------------------------------------|


e--14-b-15-b-17~-17~-17~-17~-17-r-14~-14~-14-14-14--------|
B--------------------------------------------------15-----|
G-----------------------------------------------------14~-|
D---------------------------------------------------------|
A---------------------------------------------------------|
E---------------------------------------------------------|


e-----------12~-----------------15~-------19~---17~--|
B----------------14-15~---12-15-----15-15------------|
G--14-14-14------------------------------------------|
D----------------------------------------------------|
A----------------------------------------------------|
E----------------------------------------------------|

Phew! Well thats all I got,  theres probably a few mistakes in there but I cant spot
them, for the moment I think this is pretty accurate, all opinions welcome at my UG account
Garizard1, thanks for viewing
Добавлено: 21.10.2013
Другие материалы по этой песне:
  • Аккорды и текст

Страница создана 21.10.2013
http://primanota.ru/jeff-beck/nessun-dorma-chords.htm
Привет, Гость.
Предлагаем пройти революционный курс по гитаре.
Подарок от PrimaNota.Ru, забирай!