PrimaNota.ru - самый крупный в мире бесплатный архив песенных текстов, аккордов, табулатур и нот


Jeff Beck - Goodbye Pork Pie Hat - аккорды и текст, таба, видео

Регистрация Запомнить меня
Войти через:  Facebook Google Twitter Vk Yandex Mail.ru

Jeff Beck - Goodbye Pork Pie Hat - аккорды и текст, таба, видео

Печатать
Просмотров: 295
Уроки эстрадного вокала в Санкт-Петербурге
Goodbye Pork Pie Hat
Jeff Beck
		   t. See http://www..net/faq/ for more information.                     #
#-----------------------------------------------------------------------------#


Jeff Beck: Goodbye Pork Pie Hat  off of Wired in 6/8 time.

I believe this song was written by Charles Mingus, but I've never
heard it. Its probably in Dm but sounds great in Ebm. You can tune
down half step to to play in Dm because the chords are easier in Eb
Chords are keyboards with chorus effect. Give each chord 2 beats.
Tap foot in two's; ONE 2 3,TWO 2 3,etc, fairly slowly.I left out the
second verse lead. Figure it out for yourself.

       intro riff                                  A #11    F#/C#
e------------------------------------------------------------------
B------------------------------------------------------------------
G-*----------------------------------------------------------------
D--------4~----4--4b6r4~------------4-------------------------4----
A-*---6-----6-------------6---4---6------6---4---6----------6------
E--6-------------------------------------------------5----6--------

  Ab/C    B13   A/Db    Dbsus4/B     Ebsus4  Absus4     B13
e------------------------------------------------------------------
B---------------------------------------------11--14s--------------
G---------------------------------------------------------11-13-11-
D---4--6h7p6p4-6p4----------4---------------13---------13----------
A-6----------------6--4--6-----6--4---6~~~-------------------------
E------------------------------------------------------------------

   F#/E               Bb7#9           B+      C13#11       F6
e----------11~~~---------------------------------------------------
B-------11-------------13b14-----11--------------10-------------9b-
G----11--------11--13---------------11-------s11----9h10p9p8p7-----
D-13------------------------------------12-------------------------
A------------------------------------------13----------------------
E------------------------------------------------------------------
                           : 2nd time to coda
                           : 1st time F#sus4/G
   Asus4/F  B13#11  E7M     { let ring(piano)    }
e-------------------------7s-------------------14---/6--4--2-------
B-10~~------------9b10-9-7~---------------12-14-----/7--6--4--6----
G------10b11--/8~~-------------------11-12--------------------6----
D------x--------------------------11-------------------------------
A-----x------------------------14----------------------------------
E----x----------------------15-------------------------------------

 Ab           Bb7      B7                    Ebsus4  Eb7#9   Eb7#9a
                                              Ab#5b9  Abno3rd
e------------------------------------------------------------------
B-4-----6--4~----/9~-7~-------9b10-9-7-----------------------------
G-4h5---6--4h5~---------8~-6------------8--/11~~~~-----------------
D----6------------------------------------------------/13~~~~------
A------------------------------------------------------------------
E------------------------------------------------------------------
   with coda
   fill 1            Ebsus4  Eb7  Eb9                   rake
e------------------------------------------------------------------
B---------------------------------------------------------11-13b14~
G-13b15-13-11----------10/12-------------------------------x-------
D------------13-11-----11/13-------4----4-6b7b8-4h5-------x--------
A-----------------13-----------4-6--6-6~------------6-6--x---------
E--------------------11------6-------------------------------------
 slow release w/feedback
                              Db11
e-------------------------------11-11-11-13-14~~14b16-14-----------
B-~~~~-----------------------11--------------------------12-11-----
G-------11-11-13p11------------------------------------------------
D-------------------13~~~~-----------------------------------------
A------------------------------------------------------------------
E------------------------------------------------------------------

                             Ebsus4 Eb7
e-----11p9-13p11-14p13-16b18---------------------------------------
B------------------------------------------------------------------
G-13~------------------------12p11-12p11--13p12-13p12--10-11-------
D----------------------------10----10------------------10-11--13---
A-------------------------------------------------------------13---
E------------------------------------------------------------------

e------------------------------------------------------------------
B------------------------------------------------------------------
G---11b12-13--11b12-13--11b12-13--11b12----------11b12-------------
D----------------------------------------13-13~--------------------
A------------------------------------------------------------------
E------------------------------------------------------------------
    A/B
e-------------------------14-----16p14--17p16---19p17--19b21-19----
B--12-14\16p14--16/17p16-----17------------------------------------
G------------------------------------------------------------------
D------------------------------------------------------------------
A------------------------------------------------------------------
E------------------------------------------------------------------
                                          bottleneck   2x
 {   3x     }    C/Db             Ebsus4    or bar      Eb7
e-19b21-19-----19b21--19b21--20b22--21b23~~~~~~--------------------
B---------19-------------------------------------------------------
G-----------------------------------------------------11b13-13-----
D--------------------------------------------11\-11----------------
A--------------------------------------------11\-10----------------
E------------------------------------------------11----------------

  {   4x    }    { 12x ? }
e--------------------------------11-b13r--11-----------------------
B------------------------------------------------------------------
G-11b13-11-8-----11b13-11----8~~--------------10b11-10-10b11-10----
D------------------------------------------------------------------
A------------------------------------------------------------------
E------------------------------------------------------------------

     Ebsus4     Eb7
e------------------------------------------------------------------
B--------------------11--------------------------------------------
G-----------11-12-13----11p12--------------------------------------
D-13-11-/14-------------------13~~-13-11---------------------------
A----------------------------------------13-11-9-10----------------
E----------------------------------------------------11------------

     E9
e---------------------------------------------------18-18-20-18----
B------------------------------------------16-18/20----------------
G------------------------------15-15-17-15-------------------------
D-----------13-13-15-13-15/17--------------------------------------
A--13-13/15--------------------------------------------------------
E------------------------------------------------------------------

                          Db11
  twice then  5x  release
e--20b21----18b21--------------------------------------------------
B-----------18b21--------14~-12-14--------------14h16p14p13-14-16--
G---------------------11------------13b15-13-13--------------------
D------------------------------------------------------------------
A------------------------------------------------------------------
E------------------------------------------------------------------

                                       Eb
e-----------------------------14b16--16b18-16b18--16p15----14------
B-16b18r16-14-14~~--16-16-16----------------------------16---------
G------------------------------------------------------------------
D------------------------------------------------------------------
A------------------------------------------------------------------
E------------------------------------------------------------------

     8or9x      2x                               A/B
e-------14--14------------------------------------19~--------------
B--17b19----16b19r16-16---------------11-------------19b21r19------
G-----------------------15p14p13-11h12---11h12-----------------18~~
D----------------------------------------------13------------------
A------------------------------------------------------------------
E------------------------------------------------------------------


            2x             Ebsus4                         2x
e-----19~----------------------------------------------------------
B---------19b21r19-------------------------------------------------
G--16--------------18~~~~------------------------------------------
D-----------------------------4-6b7b8-4-6-4-------4b5--------------
A------------------------6666---------------6-4-6-----6---11-------
E--------------------------------------------------------11b14r11--

               back to intro
e-----------------------------
B--/19\-----------------------
G-------13-11----11------*----
D-------------13-11-11~~------
A------------------------*----
E-----------------------------
                             coda
                                  w/fill 1
 A913  Ab7  Bb7  B7  Eb7#9  Ab7                     Ebsus4
                              let E ring  (2/2)
e----------------------------------6--4--2-------------------------
B-------------------------------------------4--2-------------------
G----------------------------------6--4--3--------3----------------
D-------------------------------------------4--2-------------------
A-------------------------------------------------4----------------
E----------------------------------0-------------------------------

            Eb7
e------------------------------------------------------------------
B------------------------------------------------------------------
G------------------------------------------------------------------
D------------------------------4-----------------------------------
A--6p4-------6p4-----------4-6---6b8r6~~---------------------------
E------6-4-2-----6-4\1--/6-----------------------------------------

 cool lick; as chords on record(keys) with Ebsus4
e--15--------18----------------------------------------------------
B-----16--------19-------------------------------------------------
G--------15--------18----------------------------------------------
D----------------------17------------------------------------------
A------------------------------------------------------------------
E------------------------------------------------------------------


A7M  #11  5 x 6 6 4 4     F#/C#  9 x 11 11 11 x

Ab/C  8 11 10 8 9 x     B13  7 9 7 8 9 x

A/Db  x 4 7 6 5 x     Dbsus4/B  7 4 4 4 4 x

Ebsus4  x 6 8 6 9 x    Eb7  x 6 8 6 8 x

Absus4  x 11 13 11 14 x    B13

F#/E  0 7 x 6 7 6     C7#9  6 8 x 7 9 9

Bb+  T6 x 8 7 7 6      C13#11  8 x 8 11 10 x

F6  x 8 10 7 10 x     Asus4/F  x 8 7 7 5 x

B13#11  T7 x 7 8 6 4    E7M    0 7 6 4 4 4

F#sus4/G  15 14 11 11 x x    Ab 4 x 6 5 4 x

Bb7  6 8 6 7 6 x      B7  7 9 7 8 7 x

Eb7#9a  11 10 11 11 11 x     Eb7#9  11 13 x 12 14 14

Ab#5b9  T4 x 4 x 5 5     Abno3rd  T4 x 6 x 4 4

F#/E  0 x 11 11 11 x    Ebsus4   Eb7   E9

Db11  9 x 9 8 7 x     A/B  7 x x 9 10 9

A913  5 x 5 4 2 2   Ab7  4 6 4 5 4 x

 Use thumb on frets with T.

 "But in my room wish you were dead
  You ball like the baby in Eraserhead"  Dead Kennedys     
Добавлено: 13.10.2013
Другие материалы по этой песне:

Страница создана 16.03.2012
http://primanota.ru/jeff-beck/goodbye-pork-pie-hat-chords.htm
Привет, Гость.
Предлагаем пройти революционный курс по гитаре.
Подарок от PrimaNota.Ru, забирай!