PrimaNota.ru - самый крупный в мире бесплатный архив песенных текстов, аккордов, табулатур и нот


Jeff Beck - El Becko - таба, видео

Регистрация Запомнить меня
Войти через:  Facebook Google Twitter Vk Yandex Mail.ru

Jeff Beck - El Becko - таба, видео

Печатать
Просмотров: 116
Авторы музыки: Tony Hymas, Simon Phillips

Gtr I (E A D G B E) - 'Untitled'
Q=65
4/4
Gtr I
W    B/F
||-------------------------------------------------------------------|
||o------------------------------------------------------------------|
||-------------------------------------------------------------------|
||--1----------------------------------------------------------------|
||o-2----------------------------------------------------------------|
||--1----------------------------------------------------------------|
|
| Gtr I
| T T T T T T T T T T T T T T T T T T T T T T T T T T T T T T T T
||-------------------------------------------------------------------|
||o------------------------------------------------------------------|
||--3---4---3-1---4---3-1---4---3-1---4---3-1---4---3-1---4---3-1----|
||----1---1-----1---1-----1---1-----1---1-----1---1-----1---1-----1--|
||o------------------------------------------------------------------|
||-------------------------------------------------------------------|

W
|---------------------------------------------------------------------||
|--------------------------------------------------------------------o||
|-3-------------------------------------------------------------------||
|-3-------------------------------------------------------------------||
|-2------------------------------------------------------------------o||
|---------------------------------------------------------------------||
|
| T T T T T T T T T T T T T T T T T T T T T T T T T T T T T T T T
|----------------------------------------------------6-5--------------||
|--------------------------------------------2-3-5-6-----6-3---------o||
|-3-1---3-1---3-1---3-1---3-1------1---1-3-4-----------------6-5-4----||
|-----2-----0-----0-----0-----1-3----3--------------------------------||
|--------------------------------------------------------------------o||
|---------------------------------------------------------------------||

Duration Legend
---------------
W - whole; H - half; Q - quarter; E - 8th; S - 16th; T - 32nd; X - 64th;
a - acciaccatura
+ - note tied to previous; . - note dotted; .. - note double dotted
Uncapitalized letters represent notes that are staccato (1/2 duration)
Irregular groupings are notated above the duration line
Duration letters will always appear directly above the note/fret number
it represents the
duration for. Duration letters with no fret number below them represent
rests. Multi-
bar rests are notated in the form Wxn, where n is the number of bars to
rest for. Low
melody durations appear below the staff
Tablature Legend
----------------
h - hammer-on
p - pull-off
b - bend
pb - pre-bend
r - bend release (if no number after the r, then release immediately)
/\ - slide into or out of (from/to "nowhere")
s - legato slide
S - shift slide
 n> - natural harmonic
[n] - artificial harmonic
n(n) - tapped harmonic
~ - vibrato
tr - trill
T - tap
TP - trem. picking
PM - palm muting
\n/ - tremolo bar dip; n = amount to dip
\n - tremolo bar down
n/ - tremolo bar up
/n\ - tremolo bar inverted dip
= - hold bend; also acts as connecting device for hammers/pulls
 > - volume swell (louder/softer)
x - on rhythm slash represents muted slash
o - on rhythm slash represents single note slash
Misc Legend
-----------
| - bar
|| - double bar
||o - repeat start
o|| - repeat end
*| - double bar (ending)
: - bar (freetime)
$ - Segno
& - Coda
Tempo markers -  E/E./Q/Q./H/H.> = BPM(8/16=s8/s16), where s8 = swing
8ths, s16 = swing 16ths

*************************************************************************
* Generated using Power Tab Editor by Brad Larsen -
http://powertab.guitarnetwork.org *
*************************************************************************
     
Добавлено: 26.08.2013
Другие материалы по этой песне:
  • Аккорды и текст

Страница создана 26.08.2013
http://primanota.ru/jeff-beck/el-becko-chords.htm
Привет, Гость.
Предлагаем пройти революционный курс по гитаре.
Подарок от PrimaNota.Ru, забирай!