PrimaNota.ru - самый крупный в мире бесплатный архив песенных текстов, аккордов, табулатур и нот


James Horner - Braveheart - таба, видео

Регистрация Запомнить меня
Войти через:  Facebook Google Twitter Vk Yandex Mail.ru

James Horner - Braveheart - таба, видео

Печатать
Просмотров: 702
   Am
e||-------------------------------------------------------------------|
 ||---------------------------1---------------------------------1-----|
 ||----------2-------4----------------------2--------4----------------|
 ||------2------2--------2--------------2--------2-------2------------|
 ||--0-----------------------------0----------------------------------|
E||-------------------------------------------------------------------|

Then the actual tune comes in
||-----------------7h8------7------7h8p7------------------------------------|
||-----8---10-------------- 0--------------10---8---8---8h10----------------|
||-9---9-------0----------------------------------- 0--------------9--------|
||---------------0-0--------------------------------------------------------|
||-0------- 8 ----------------------------- 0---0------------------0--------|
||--------------------------------------------------------------------------|

||------------------7h8-----7------7h8p7----------------------------------|
||-----8----8h10---------------------------10---8---8/10------------------|
||-9------------------------0-----------------------0---------------------|
||-----0------------0---------------------------0-------------------------|
||-0----------------------------------------0-----------------------------|
||------------------------------------------------------------------------|

||-----------------------------------------------------------------------|
||-----8----10----8------------------------------------------------------|
||-9---0----------0------9----7---------7---10---9---7-------------------|
||---------- 0-------------------10---------0-----------10--7------------|
||-----------------------0----0---0--------------0-------0---------------|
||-0--------------------------------------------------------0------------|

||-----------------7h8------7------7h8p7-----------------------------|
||-----8---8h10----------------------------10---8---8---8h10---------|
||-9-----------------------------------------------------------------|
||-------------------------------------------------------------------|
||-------------------------------------------------------------------|
||-------------------------------------------------------------------|
Добавлено: 20.06.2012
Другие материалы по этой песне:

Страница создана 20.06.2012
http://primanota.ru/james-horner/braveheart-chords.htm
Привет, Гость.
Предлагаем пройти революционный курс по гитаре.
Подарок от PrimaNota.Ru, забирай!