PrimaNota.ru - самый крупный в мире бесплатный архив песенных текстов, аккордов, табулатур и нот


Iron & Wine - Carissas Weird - аккорды и текст, видео

Регистрация Запомнить меня
Войти через:  Facebook Google Twitter Vk Yandex Mail.ru

Iron & Wine - Carissas Weird - аккорды и текст, видео

Печатать
Просмотров: 121
Carissas Weird
Iron & Wine
Iron & Wine - "Carissa's Weird"
Tabbed by: Stone Birds

Standard Tuning
Capo 1


Chords:

     D    A    G
e|---2----0----3-|
B|---3----2----0-|
G|---2----2----0-|
D|---0----2----0-|
A|---0----0----2-|
E|---0----0----3-|


D
is there a race involved
A                               G
you run and hide, you get two stars
G*
last night two fat skinheads whistled at her
D
but she sleeps it off
A                                G
a whiskey scent on her kitten's fur
G*

D
and when it's time to go
A                                 G
i'll push her high as she wants to go
G*
red pants down, she's pissing out by the car
D
and though she'll never know
A
Carissa's weird but i love her so
G*


The D chord includes the pull-off:

e|--2--3p2--2-|
B|--3--3----3-|
G|--2--2----2-|
D|--0--0----0-|
A|--0--0----0-|
E|--0--0----0-|


The A Chord includes the pull-off:

e|--0--0----0-|
B|--2--3p2--2-|
G|--2--2----2-|
D|--2--2----2-|
A|--0--0----0-|
E|--0--0----0-|


And this is how you play G*:

E|-------------------2-|
B|-0-0-0-0-0-0---0-0-3-|
G|-0-0-0-0-0-0---0-0-2-|
D|------0-2-0--------0-|
A|--0-2-------0h2-2----|
E|3--------------------|
Добавлено: 25.07.2012
Другие материалы по этой песне:
  • Аккорды и текст

Страница создана 25.07.2012
http://primanota.ru/iron-and-wine/carissas-weird-chords.htm
Привет, Гость.
Предлагаем пройти революционный курс по гитаре.
Подарок от PrimaNota.Ru, забирай!