PrimaNota.ru - самый крупный в мире бесплатный архив песенных текстов, аккордов, табулатур и нот


Iron & Wine - Cinders And Smoke - таба, видео

Регистрация Запомнить меня
Войти через:  Facebook Google Twitter Vk Yandex Mail.ru

Iron & Wine - Cinders And Smoke - таба, видео

Печатать
Просмотров: 147
Cinders and Smoke
by Iron and Wine

this is my first tab so i'm not so sure if it's good, but the other tabs just didnt 
like the song.
i watched some you tube covers and i think this is closer to the real thing.  they 
it up a little
 in the live versions but this sounds like the recorded version.  might be some 
but this
sounds pretty good if you get the rhythm right.  it's a great song!

capo 2nd fret
Am
x02210

x03230

Em
02200x


Intro 1x  repeat for whole song
---------0-----------------------0-----------------------0-----------------------0---------------|
1--------------------1-----------------------(1)-3--------------------3-----------------------(0)|
---2-----------2-----------2-----------2-----------2-----------2-----------2-----------2---------|
------2-----------2-----------2-----------2-----------3-----------3-----------3-----------3------|
0-----------0-----------0-----------0------------0-----------0-----------0-----------0-----------|
-------------------------------------------------------------------------------------------------|

----------------------------------------------------------0----------------------0---------------|
--0--------0------------0---------0----------(0)---3-------------------3--------------------(0)--|
-----0-----------0----------0----------0--------------2---------2-----------2----------2---------|
-------2------------2---------2-----------2-------------3---------3-----------3----------3-------|
--2-----------2----------2----------2-------------0----------0-----------0----------0------------|
-------------------------------------------------------------------------------------------------|

-the notes in () are skipped as you change chords
-the speed stays the same and the bass is fairly soft in the background with no pauses 
the repeat
Добавлено: 11.05.2012
Другие материалы по этой песне:

Страница создана 03.04.2012
http://primanota.ru/iron-and-wine/cinders-and-smoke-chords.htm
Привет, Гость.
Предлагаем пройти революционный курс по гитаре.
Подарок от PrimaNota.Ru, забирай!