PrimaNota.ru - самый крупный в мире бесплатный архив песенных текстов, аккордов, табулатур и нот


Intervals - Im Awake - таба, видео

Регистрация Запомнить меня
Войти через:  Facebook Google Twitter Vk Yandex Mail.ru

Intervals - Im Awake - таба, видео

Печатать
Просмотров: 74
The intro- and main-riff. 

e|--------------------------------|--------------------------------|
B|--------------------------------|--------------------------------|
G|--------------------------------|--------------------------------|
D|--------0h7---------------------|----0h4---------2~~~~~~~2~~~~~~~|
A|--------------------------------|------------0~~~~~~~5~~~~~~~0~~~|
E|7-7-7-7-----7-7-7-7-7---7-7-7\3-|3-3-----3-3---------------------|

e|--------------------------------|--------------------------------|
B|--------------------------------|--------------------------------|
G|--------------------------------|----0---------------------------|
D|--------0h7---------2-------4---|--------4-----------------------|
A|--------------------4-------5---|------------7-------------0h5h7-|
E|7-7-7-7-----0-0-0-0-2-------3---|------------5-------0h2h3-------|

e|--------------------------------|--------------------------------|
B|--------------------------------|------------------------7*------|
G|--------------------------------|----------------7*--5*------7*--|
D|--------0h7---------------------|----0h4-----7*------------------|
A|--------------------------------|--------------------------------|
E|7-7-7-7-----7-7-7-7-7---7-7-7\3-|3-3-----3-3---------------------|

e|--------------------------------|--------------------------------|
B|--------------------------------|--------------------------------|
G|--------------------------------|--------------------------------|
D|----------------------------4---|----------------0h4-------------|
A|----------------------------5---|----------0h2h5-----------0h5h7-|
E|0-0-0-0-0---0-0-0-0-0h2-x-x-3---|----0h2h3-----------0h3h5-------|
Добавлено: 17.04.2016
Вам также может быть интересно:
Другие материалы по этой песне:
  • Аккорды и текст

Страница создана 17.04.2016
http://primanota.ru/intervals/im-awake-chords.htm
Привет, Гость.
Предлагаем пройти революционный курс по гитаре.
Подарок от PrimaNota.Ru, забирай!