PrimaNota.ru - самый крупный в мире бесплатный архив песенных текстов, аккордов, табулатур и нот


Intervals - Inertia - таба, видео

Регистрация Запомнить меня
Войти через:  Facebook Google Twitter Vk Yandex Mail.ru

Intervals - Inertia - таба, видео

Печатать
Просмотров: 183
I love this song, but unfortunately Aaron hasn't released the tab for it, so I just gave 
it a little stab, and I only have a 6 string, so only the intro solo works for me.

Intro solo:

eb|-----------------------------------------------------------------------13----------|
Bb|-------------------------------------------------------------------------15--------|
Gb|-11/13---------11/12-11-9-(9)h11-9-11/13---------------11/12-11-9-11/12------------|
Db|-------9/11--9---------------------------11-11-9h11--9-----------------------------|
Ab|-----------------------------------------------------------------------------------|
Eb|-----------------------------------------------------------------------------------|


       ~~~  ~~~      ~~          ~~             ~ ~~
eb|----------------------------------------------------------------12p11--------------|
Bb|-----------------------------------------------------12-10-9----------12/14--------|
Gb|-11/13---------11/12-11-9-(9)h11-9-11/13----9b---------------9---------------------|
Db|-------9/11--9---------------------------11----11--9-------------------------------|
Ab|-----------------------------------------------------------------------------------|
Eb|-----------------------------------------------------------------------------------|

       ~~~   ~~~     ~~          ~~~              ~~                        ~~
eb|-----------------------------------------------------------------------13----------|
Bb|-------------------------------------------------------------------------15--15\17-|
Gb|-11/13---------11/12-11-9-(9)h11-9-11/13---------------11/12-11-9-11/12------------|
Db|-------9/11--9---------------------------11-11-9h11--9-----------------------------|
Ab|-----------------------------------------------------------------------------------|
Eb|-----------------------------------------------------------------------------------|


       ~~~  ~~~      ~~          ~~             ~ ~~            ~~ ~
eb|-----------------------------------------------------------------------------------|
Bb|-----------------------------------------------------12-10-9-----------------------|
Gb|-11/13---------11/12-11-9-(9)h11-9-11/13----9b------------------9-----9-11---------|
Db|-------9/11--9---------------------------11----11--9---------11----11--------------|
Ab|-----------------------------------------------------------------------------------|
Eb|-----------------------------------------------------------------------------------|



eb|-12p11-----------------------------------------------------------------------------|
Bb|-------12/14-----------------------------------------------------------------------|
Gb|-------------13\11----11p13-----------16-------------------------------------------|
Db|-------------------14-------14--13p14----/13-/13-----------------------------------|
Ab|-------------------------------------------------14-11-----------------------------|
Eb|-----------------------------------------------------------------------------------|



eb|-12p11-----------------------------------------------------------------------------|
Bb|-------12/14-----------------------------------------------------------------------|
Gb|-------------13\11----11p13-----------16-------------------------------------------|
Db|-------------------14-------14--13p14----/13-/13-----------------------------------|
Ab|-------------------------------------------------14-16--14-------------------------|
Eb|-----------------------------------------------------------------------------------|



eb|-12p11-----------------------------------------------------------------------------|
Bb|-------12/14-----------------------------------------------------------------------|
Gb|-------------13\11----11p13-----------16-------------------------------------------|
Db|-------------------14-------14--13p14----/13-/13-----------------------------------|
Ab|-------------------------------------------------14-11--9--------------------------|
Eb|-----------------------------------------------------------------------------------|



eb|-12p11---------------------------------------------------------------14-17-21------|
Bb|-------12/14------------------------------------------------------15---------------|
Gb|-------------13\11----11p13------------------------------------14------------------|
Db|-------------------14-------14---------------------11-12-14/16---------------------|
Ab|----------------------------------------9-11-12/14---------------------------------|
Eb|--------------------------------9-10-12--------------------------------------------|


not sure about the last part, but I'll get it 100% soon.
Добавлено: 30.09.2013
Вам также может быть интересно:
Другие материалы по этой песне:
  • Аккорды и текст

Страница создана 30.09.2013
http://primanota.ru/intervals/inertia-chords.htm
Привет, Гость.
Предлагаем пройти революционный курс по гитаре.
Подарок от PrimaNota.Ru, забирай!