PrimaNota.ru - самый крупный в мире бесплатный архив песенных текстов, аккордов, табулатур и нот


Interpol - Scale - аккорды и текст, таба, бас-таба, видео

Регистрация Запомнить меня
Войти через:  Facebook Google Twitter Vk Yandex Mail.ru

Interpol - Scale - аккорды и текст, таба, бас-таба, видео

Печатать
Просмотров: 897
Уроки эстрадного вокала в Санкт-Петербурге
Scale
Interpol
THE SCALE
 = upstroke

D|------------------|----------------------|--------------------|
A|------------------|----------------------|--------------------|
E|---5-5--7-7--8-8-8/12-12~-12/13\12--12-10~-10-10-10-8-8-7~~---|   x 2

(Note:-A---B----C-----E---------F--E-------D------------C---E)

Dm         Am                        G            Dm
I have a sequin for an eye ..Pick a rose and hide my face
Dm          Am                             G           Dm
This is the bandit’s life   ..It comes and goes and them’s the breaks
Dm         Am                  G                    Dm
Under a molten sky, beyond the road, we lie in wait
Dm         Am                  G                    Dm
You think they know us now? ..Wait ’til the stars come out   (You’ll see that)
***********************************
   Am               G               Dm
Well, I made you and now I take you back It’s too late but today I can define the lack
   Am           G       Dm
I made you and now I take you back
**************************CHORUS***** 
F              Dm                  F()           Am()
Sun, you sleep in clouds of fire..That’s all and that’s right  (x2)

|------------------|----------------------|--------------------|
|------------------|----------------------|--------------------|
|------------------|----------------------|--------------------|
|------------------|-(5)/7-7~---7/8\7~~-7-|-5~---5-5-5---------|
|---5-5--7-7--8-8-8|----------------------|------------8-8-7~--|   x 2
|------------------|----------------------|--------------------|

Am                                         G                Dm
I can still feel it when you lie ...Pick a rose just to hide my face
      Am                        G                   Dm
Well, if there’s something I should know...I seek no science when there is no shape
Am         G       Dm
Under a molten sky, let the days collide ..
Dm-Dm--Cm-Cm--Bbm-Bbm--Am

Am           G                    Dm ()
Well, I made you and now I take you back

F               Dm                  F()           Am()
Sun, you sleep in clouds of fire..That’s all and that’s right
F               Dm()                 F()               Am()
My sun, you sleep in clouds of fire That’s all and that’s right
e|---------------------------------------------------------------------------------------------|
B|---------------------------------------------------------------------------------------------|
G|-----------------------------------------------------------------------------14-14b-16b-17---|
D|-10~-9.7-7-9.10--10.12.10--9-7-5--7-9-14b-12-10-12-14-12-10-12--14-14-10-12----------------7~|
A|---------------------------------------------------------------------------------------------|
E|---------------------------------------------------------------------------------------------|
Добавлено: 12.05.2014
Другие материалы по этой песне:
  • Аккорды и текст

Страница создана 24.03.2012
http://primanota.ru/interpol/scale-chords.htm
Привет, Гость.
Предлагаем пройти революционный курс по гитаре.
Подарок от PrimaNota.Ru, забирай!