PrimaNota.ru - самый крупный в мире бесплатный архив песенных текстов, аккордов, табулатур и нот


Incubus - Rebel Girls - аккорды и текст, видео

Регистрация Запомнить меня
Войти через:  Facebook Google Twitter Vk Yandex Mail.ru

Incubus - Rebel Girls - аккорды и текст, видео

Печатать
Просмотров: 220
Rebel Girls
Incubus
-----------------------------------------------------------------------------
                           REBEL GIRLS - Incubus
-----------------------------------------------------------------------------

Song: Rebel Girls
Group: Incubus
Tuning: standard


Baby we can make it to the outer reaches of inner space create
castles, monuments to flesh
a triangled Valhalla on the side of the moon...


[Chorus]
               Bm     G     F     Am
e|--------------2-----3-----1-----5------|
B|--------------3-----3-----1-----5------|
G|--------------4-----4-----2-----5------|
D|--------------4-----5-----3-----7------|
A|-------0h2----2-----5-----3-----7------|
E|--0h2---------x-----3-----1-----5------|


Bm         G                F
Raven-eyed, those Valkyries
F                  Am              Bm
Rebel girls, rebel girls tearing it up
Bm             G         F    Am   Bm
Paying to mind to the divide..........
Bm        G             F
Raven eyes all over me
F                  Am                Bm
Rebel girls, rebel girls filling my cup
Bm         G           F     Am    
Them and I need to collide............


       Bm     G     F    Cm
e|------2-----3-----8-----8------|
B|------3-----3-----10----8------|
G|------4-----4-----10----8------|
D|------4-----5-----10----10-----|
A|------2-----5-----8-----10-----|
E|------x-----3-----x-----10-----|

Bm  G    F                      Cm
Do it so   [rebel girls, rebel girls tearing it up]
Bm    G        F        
No one will know
Bm G        F                     Cm   
Rarest pearl [rebel girls, rebel girls filling my cup]
Bm G       F
Rebel girls


Waiting at the gates it's blue-eyed and blonde
With black-eyed and brown
We'll make tangible inner space reflect the
Never-quiet rebellion on the side of the moon

----------------------------------------------------

This is my first tab. Please let me know if there's anything
I can fix.


************************************

| /   slide up
| \   slide down
| B   hammer-on
| p   pull-off
| ~   vibrato
| +   harmonic
| x   Mute note
| B   Bend
| pb  Pre-bend
| br  Bend release
| pbr Pre-bend release
| brb Bend release bend

************************************
Добавлено: 11.07.2012
Другие материалы по этой песне:
  • Аккорды и текст

Страница создана 11.07.2012
http://primanota.ru/incubus/rebel-girls-chords.htm
Привет, Гость.
Предлагаем пройти революционный курс по гитаре.
Подарок от PrimaNota.Ru, забирай!