PrimaNota.ru - самый крупный в мире бесплатный архив песенных текстов, аккордов, табулатур и нот


In Flames - The Attic - текст песни, таба, видео

Регистрация Запомнить меня
Войти через:  Facebook Google Twitter Vk Yandex Mail.ru

In Flames - The Attic - текст песни, таба, видео

Печатать
Просмотров: 655
Уроки эстрадного вокала в Санкт-Петербурге
In Flames - The Attic

Tabbed by: Niklas Kumpulainen
Tuning: Eb

Intro:
|-------------------------------------------|
|----------------------------------0h2p0----|
|------2---2-4-4s6-4--2--1h2p1----------2-1-|
|-4---4--------------------------2----------|
|---4---------------------------------------|
|-------------------------------------------|

|------s9-----------------------------------|
|------s7--s3-2--0h2p0----------------------|
|-----2----------------s2--1h2p1----1h2p1-1-|
|-4-------------------------------2------2--|
|---4---------------------------------------|
|-------------------------------------------|

|--------------------------------------------------------------|
|--------2-2--3-2---2-----------------------9-9b10r9-----------|
|----2-4----------4---4-2---2----------9-11---------11-9-------|
|(4)----------------------4---4-s2--s11------------------11-9--|
|--------------------------------------------------------------|
|--------------------------------------------------------------|

|---------------------------------------------14b16r14b16-16r14p12-14-b16--|
|---------12b14r12b14p10-12b14r12b14---------------------------------------|
|----9-11--------------------------------9-11------------------------------|
|-11----------------------------------11-----------------------------------|
|--------------------------------------------------------------------------|
|--------------------------------------------------------------------------|

|------------------------------------------|
|------------------------------------------|
|s7-s9-9b10r9-7-6---6---7-7b8r7---7--------|
|s5----------------4--4----------5--5--5---|
|------------------------------------------|
|------------------------------------------|

|---------s10-9--7h9p7------------------7--|
|----------------------10-----------7------|
|--------7----------------7-6---------7----|
|------9----------------------7--9---9-----|
|-s10-----------------------------9--------|
|------------------------------------------|


Verse:
|----------------------------------|
|--------------------0-----0h2p0---|
|-----2-----2-4----1------------2--|
|-4--------------2-------2---------|
|---4------------2-----------------|
|----------------------------------|

|----------------------------------|
|--------------------0-------------|
|-----2-----2-4----1-------1h2p1---|
|-4--------------2-------2------2--|
|---4------------2-----------------|
|----------------------------------|


Chorus:
|------------------------------------------|
|------------------------------------------|
|s7-s9-9b10r9-7-6---6---7-7b8r7---7--------|
|s5----------------4--4----------5--5--5---|
|------------------------------------------|
|------------------------------------------|

|---------------------------------7--------|
|--------------------------------7--(7)----|
|---7-6-7--s9----9--7-6-7-----7------------|
|-5-------5s7--7-----------9-9--9----------|
|---------------------------9--------------|
|------------------------------------------|


[Verse 1]
F#m
there's someone in the attic
E
building a strange machine

F#m
never really seen him
E
but I think he works all day

F#m
blinded by the world outside
E
I stay inside

F#m
hardly know my name
E
but it's getting better by time


[Chorus] x2

[Verse 2]
F#m
I saw something in the mirror
E
someone's watching me

F#m
if I hide in the attic
E
it will never get to me

F#m
I found some rope on the floor
E
I have to build a trap

F#m
so I start on my machine
E
I am never to be seen

[Chorus] x3
Добавлено: 23.02.2012
Другие материалы по этой песне:

Страница создана 23.02.2012
http://primanota.ru/in-flames/the-attic-chords.htm
Привет, Гость.
Предлагаем пройти революционный курс по гитаре.
Подарок от PrimaNota.Ru, забирай!