PrimaNota.ru - самый крупный в мире бесплатный архив песенных текстов, аккордов, табулатур и нот


In Flames - Jesters Dance - таба, бас-таба, видео

Регистрация Запомнить меня
Войти через:  Facebook Google Twitter Vk Yandex Mail.ru

In Flames - Jesters Dance - таба, бас-таба, видео

Печатать
Просмотров: 491
Авторы музыки: Johan Larsson, Jesper Strömblad

Artist: In Flames
Song: The Jesters Dance (Solo)
tabbed by SisteM (Joeri)
Email: Joeri_knoeri@hotmail.com


Tuning: Normal (E)

Solo (0:26)
e----------------------------------------------------------------------|
b------------------------13-11-13-9-13-11-13---13-11-13-14-13-11-------|
g-8~-5-5-6-3~-3-1-0~---10-------------------10------------------13-8~--|
d----------------------------------------------------------------------|
a----------------------------------------------------------------------|
E----------------------------------------------------------------------|


e----------------------------------------------------------------------|
b-----------------9-11-13~---------------------------------------------|
g---8-6-8-10-8-10------------------------------------------------------|
d----------------------------------------------------------------------|
a----------------------------------------------------------------------|
E----------------------------------------------------------------------|


-Then you got the heavy part (0:38)

e----------------------------------------------------------------------|
b-~~-------------------------------------------------------------------|
g-----------------------------------------8----------------------------|
d------10---8----5----6---------6----8----6----10----------------------|
a------8----6----3----4---------4----6---------8-----------------------|
E----------------------------------------------------------------------|


-Then the fast part (0:43)
e----------------------------------------------------------------------|
b----------------------------------------------------------------------|
g--1-0-1-3-1-3-5---5---3---5-5---3---5-6---5---3-3--1-0-1-3-5-3-1-0----|
d-------------------33--33--3-33--33--3-33--33-------------------------|
a----------------------------------------------------------------------|
E----------------------------------------------------------------------|

e----------------------------------------------------------------------|
b----------------------------------------------------------------------|
g-----5---3---5-5---3---5-6---5---3-3--1-0-1-3-5-3-1-0--5~~------------|
d------33--33--3-33--33--3-33--33--------------------------------------|
a----------------------------------------------------------------------|
E----------------------------------------------------------------------|


I hope you enjoy it!

If You Have Any Questions Mail to: Joeri_knoeri@hotmail.com

|--------------------|
|---------END--------|
|--------------------|
Добавлено: 11.06.2012
Другие материалы по этой песне:

Страница создана 24.02.2012
http://primanota.ru/in-flames/jesters-dance-chords.htm
Привет, Гость.
Предлагаем пройти революционный курс по гитаре.
Подарок от PrimaNota.Ru, забирай!