PrimaNota.ru - самый крупный в мире бесплатный архив песенных текстов, аккордов, табулатур и нот


In Flames - Acoustic Medley - таба, видео

Регистрация Запомнить меня
Войти через:  Facebook Google Twitter Vk Yandex Mail.ru

In Flames - Acoustic Medley - таба, видео

Печатать
Просмотров: 413
Авторы музыки: Jesper Strömblad

-------------------------------------------------------------------------------
			     SONG NAME - Band Name
-------------------------------------------------------------------------------
Tabbed by: Mike
Email: Darkfire1440@aol.com or www.myspace.com/mikedemer

Tuning: D A D G B E

                                                                                        2x
e|---------------------------------------------------------------------------|
B|---------------------------------------------------------------------------|
G|---------------------------------------------------------------------------|
D|----8-----------8-----------10\12------------------------------------------|
A|---10--10--10--10--10--10--------------------------------------------------|
D|---------------------------------------------------------------------------|


e|---------------------------------------------------------------------------|
B|---------------------------------------------------------------------------|
G|--12-------10----------------10--------------------------------------------|
D|----------------------13----------13----12------10-------------------------|
A|---------------------------------------------------------------------------|
D|------0-0-------0-0-------0-----------------0--------0---------------------|

2x
e|---------------------------------------------------------------------------|
B|---------------------------------------------------------------------------|
G|---------------------------------------------------------------------------|
D|----8-----------8----------10\12-------------------------------------------|
A|---10--10--10--10--10--10--------------------------------------------------|
D|---------------------------------------------------------------------------|


e|---------------------------------------------------------------------------|
B|---------------------------------------------------------------------------|
G|--12-------10----------------10--------------------------------------------|
D|----------------------13-----------13----12-------10-----------------------|
A|---------------------------------------------------------------------------|
D|------0-0-------0-0-------0-------------------0--------0-------------------|

2x
e|---------------------------------------------------------------------------|
B|---------------------------------------------------------------------------|
G|---------------------------------------------------------------------------|
D|---12-----10~----10h12h13----12----10-------------10---12-------12---------|
A|---------------------------------------13~---13------------13--------------|
D|------0-0------------------------------------------------------------------|


e|---------------------------------------------------------------------------|
B|---------------------------------------------------------------------------|
G|---------------------------------------------------------------------------|
D|---12\15----13----12h13p12---10----12-------12-----12\15-------------------|
A|---------------------------------------13----------------------------------|
D|---------------------------------------------------------------------------|

2x
e|---------------------------------------------------------------------------|
B|---------------------------------------------------------------------------|
G|---------------------------------------------------------------------------|
D|--8-----------8-----------10\12--------------------------------------------|
A|-10--10--10--10--10--10----------------------------------------------------|
D|---------------------------------------------------------------------------|


e|---------------------------------------------------------------------------|
B|---------------------------------------------------------------------------|
G|--12-------10----------------10--------------------------------------------|
D|----------------------13-----------13----12-------10-----------------------|
A|---------------------------------------------------------------------------|
D|------0-0-------0-0-------0-------------------0--------0-------------------|


2x
e|---------------------------------------------------------------------------|
B|---------------------------------------------------------------------------|
G|---------------------------------------------------------------------------|
D|--8-----------8-----------10\12--------------------------------------------|
A|-10--10--10--10--10--10----------------------------------------------------|
D|---------------------------------------------------------------------------|


e|---------------------------------------------------------------------------|
B|---------------------------------------------------------------------------|
G|--12-------10----------------10--------------------------------------------|
D|----------------------13-----------13----12-------10-----------------------|
A|---------------------------------------------------------------------------|
D|------0-0-------0-0-------0-------------------0--------0-------------------|

4x
e|---------------------------------------------------------------------------|
B|---------------------------------------------------------------------------|
G|---------------------------------------------------------------------------|
D|---------------------------------------------------------------------------|
A|-----10----13----12----8----6----10----8-----12----------------------------|
E|--0------0-----0-----0----0----0-----0-----0-------------------------------|

2x
e|---------------------------------------------------------------------------|
B|---------------------------------------------------------------------------|
G|---------------------------------------------------------------------------|
D|-----2---3--3~-------3-----5\7-----5~-------2---3--3~--3---5---7-7--5h7p5--|
A|--5--------------5----------------------5----------------------0-0---------|
E|--0--------------0----------------------0----------------------------------|


e|------------------------------------------------------------------------------|
B|------------------------------------------------------------------------------|
G|------------------------------------------------------------------------------|
D|-------5----------------------------------------------------------------------|
A|---8--------------------------------------------------------------------------|
E|------------------------------------------------------------------------------|

4x
e|---------------------------------------------------------------------------|
B|---------------------------------------------------------------------------|
G|---------------------------------------------------------------------------|
D|---------------------------------------------------------------------------|
A|-----10----13----12----8----6----10----8-----12----------------------------|
E|--0------0-----0-----0----0----0-----0-----0-------------------------------|


e|---------------------------------------------------------------------------|
B|---------------------------------------------------------------------------|
G|-------------9---7---10---9---7--------------------------------------------|
D|-------7h9---7---0---0-----------10---9-------------------10--10h12------10|
A|-------------------------------------------12---10p8--8~---0---------13----|
E|---0-----------------------------------------------------------------------|


e|---------------------------------------------------------------------------|
B|---------------------------------------------------------------------------|
G|------------9---7--10---9----15---13---15---13p11---11~--10--10h12-------10|
D|-------7h9--7---0---0---0----13--------------------------------------13----|
A|---------------------------------------------------------------------------|
E|---0-----------------------------------------------------------------------|


e|---------------------------------------------------------------------------|
B|---------------------------------------------------------------------------|
G|---------------------------------------------------------------------------|
D|--15~---14~--------------------15p14---------------------------------------|
A|-------------15---10h12---13---------15---10h12---11p12--------------------|
E|-----------------------------------------------------------10--------------|


2x
e|---------------------------------------------------------------------------|
B|---------------------------------------------------------------------------|
G|---------------------------------------------------------------------------|
D|-----2---3--3~-------3-----5\7-----5~-------2---3--3~--3---5---7-7--5h7p5--|
A|--5--------------5----------------------5----------------------0-0---------|
E|--0--------------0----------------------0----------------------------------|


e|---------------------------------------------------------------------------|
B|---------------------------------------------------------------------------|
G|---------------------------------------------------------------------------|
D|-----5---------------------------------------------------------------------|
A|--8------------------------------------------------------------------------|
E|---------------------------------------------------------------------------|


| /  slide up
| \  slide down
| h  hammer-on
| p  pull-off
| ~  vibrato
| +  harmonic
| x  Mute note
===============================================================================
Добавлено: 11.09.2013
Другие материалы по этой песне:

Страница создана 06.03.2012
http://primanota.ru/in-flames/acoustic-medley-chords.htm
Привет, Гость.
Предлагаем пройти революционный курс по гитаре.
Подарок от PrimaNota.Ru, забирай!