PrimaNota.ru - самый крупный в мире бесплатный архив песенных текстов, аккордов, табулатур и нот


In Flames - The Mirrors Truth - текст песни, таба, бас-таба, видео

Регистрация Запомнить меня
Войти через:  Facebook Google Twitter Vk Yandex Mail.ru

In Flames - The Mirrors Truth - текст песни, таба, бас-таба, видео

Печатать
Просмотров: 353
Авторы музыки: Jesper Strömblad, Anders Fridén, Björn Gelotte
Авторы текста: Jesper Strömblad, Anders Fridén, Björn Gelotte
In Flames-The mirrors truth(solo) tabbed by Metalhead223

Drop A# (A# F A# D# G C) Low to High

I think it's okay if you think some parts need to be change leave a comment.

|--------------------15b-------------------|
|---------------13b------15-13-15----------|
|10-----12------------------------------12b|
|--12-12--12-12---------------------14b----|
|------------------------------------------|
|------------------------------------------|
   .....  ......        
listen to the song for the tapping
|-----------------------------------------------------|
|8h10p8t13-8h10p8t13-8h10t13-8h10p8t15-8h10t15-10p8t15|
|-----------------------------------------------------|
|-----------------------------------------------------|
|-----------------------------------------------------|
|-----------------------------------------------------|

|8h10p8t13-8h10t13-10p8t13-8h10p8t15-8h10t15-10p8t15--|
|-----------------------------------------------------|
|-----------------------------------------------------|
|-----------------------------------------------------|
|-----------------------------------------------------|
|-----------------------------------------------------|

|-15b--/13--12h13p12----------------------------------|
|---------------------15-13-12h13p12------------------|
|-------------------------------------15-13-12/15-----|
|-----------------------------------------------------|
|-----------------------------------------------------|
|-----------------------------------------------------|
Добавлено: 10.07.2012
Другие материалы по этой песне:

Страница создана 20.03.2012
http://primanota.ru/in-flames/mirrors-truth-chords.htm
Привет, Гость.
Предлагаем пройти революционный курс по гитаре.
Подарок от PrimaNota.Ru, забирай!