PrimaNota.ru - самый крупный в мире бесплатный архив песенных текстов, аккордов, табулатур и нот


In Flames - Everlost Part 1 - таба, видео

Регистрация Запомнить меня
Войти через:  Facebook Google Twitter Vk Yandex Mail.ru

In Flames - Everlost Part 1 - таба, видео

Печатать
Просмотров: 158
In Flames- Everlost (part 1)
Album: Lunar Strain
Tabbed by Chase Ambler
snow13board@hotmail.com

A
----------------------------------------------
----------------------------------------------
----------------------------------------------
----2---------------------2-----------------
-------2-----------3--------2---3---5-----
-0--------3---2------0---------------------
B
----------------------------------------------
---3--------------------3--------------------
-----2------------3---------2---3---5------
-0-------2---2------0-----------------------
-----------------------------------------------
-----------------------------------------------
C
----------------------------------------------
----------------------------------------------
-14-14-12-14-15-12-14-14-12------
----------------------------------------------
---------------------------------------------
----------------------------------------------
D
-------------------------------------------
-------------------------------------------
-(9)*--9-9-7-9-10-7-9-9-7--------
-------------------------------------------
-------------------------------------------
------------------------------------------
*note: this 9 is only played in between part C and part D
E
----------------------------------------------
----------------------------------------------
-----16------14---17---26---12---9----
-14-----12---------------------------------
---------------------------------------------
----------------------------------------------

Playing Order (Note this song has more than one guitar)
A
AB
AB
A
A
AB
AB
C
C
D
D
E
E
C
C
D
D
E
E

_________________________________________________________________
     
Добавлено: 15.10.2013
Другие материалы по этой песне:
  • Аккорды и текст

Страница создана 15.10.2013
http://primanota.ru/in-flames/everlost-part-1-chords.htm
Привет, Гость.
Предлагаем пройти революционный курс по гитаре.
Подарок от PrimaNota.Ru, забирай!