PrimaNota.ru - самый крупный в мире бесплатный архив песенных текстов, аккордов, табулатур и нот


Imelda May - Tainted Love - текст песни, бас-таба, видео

Регистрация Запомнить меня
Войти через:  Facebook Google Twitter Vk Yandex Mail.ru

Imelda May - Tainted Love - текст песни, бас-таба, видео

Печатать
Просмотров: 264
Авторы музыки: Ed Cobb
Авторы текста: Ed Cobb
-------------------------------------------------------------------------------
                             Tainted Love - Imelda May
-------------------------------------------------------------------------------
Tabbed by: jmads98
E-mail: jackmaddison5@gmail.com


Tuning: Standard (E,A,D,G)

In the recording this is quite obviously on a double bass. 
To get an authentic sound on electric bass you can hit the strings down
onto the fret board which gives the tapping effect. Other than that its 
fairly straight forward. This may not be perfect but it will get you through 
a performance no problem.

ORDER (listen to the song for exact timings)
Verse x 10
Chorus x 1
verse x 10
Chorus x 1
Verse x 2
SOLO - just the chorus x 1 followed by the verse x 2 will get you through 
       this fine but feel free to show off
Break
Chorus x 1
Verse x 9
END

Verse
G|--------------------------|
D|-------------3--3---------|
A|-------3--3--------3-5-3--|
E|-5--5---------------------|

Chorus (0:33)
G|------------------------------------------------------|
D|---------------------------------1--3--1-------1--3--1|
A|------3--5--3------3--5--3--3-3-----------3-3---------|
E|-5-5-----------5-5------------------------------------|

Chorus continued
G|------1--3--1------1--3--1---------------------------------|
D|-3-3----------3-3---------------3--5--3--------------------|
A|---------------------------5-5-----------5555555555555555--|
E|-----------------------------------------------------------|


===============================================================================
Добавлено: 30.11.2015
Другие материалы по этой песне:
  • Аккорды и текст

Страница создана 14.10.2013
http://primanota.ru/imelda-may/tainted-love-chords.htm
Привет, Гость.
Предлагаем пройти революционный курс по гитаре.
Подарок от PrimaNota.Ru, забирай!