PrimaNota.ru - самый крупный в мире бесплатный архив песенных текстов, аккордов, табулатур и нот


Iced Earth - Blessed Are You - текст песни, таба, бас-таба, видео

Регистрация Запомнить меня
Войти через:  Facebook Google Twitter Vk Yandex Mail.ru

Iced Earth - Blessed Are You - текст песни, таба, бас-таба, видео

Печатать
Просмотров: 102
Авторы музыки: Jon Schaffer
Авторы текста: Jon Schaffer
As recorded by Iced Earth
(From the 1998 Album SOMETHING WICKED THIS WAY COMES)

Transcribed by Russ Elton (webmaster@abysslord.com), Jordan B. (sansamppsa1@hotmail.com)
	

Words and Music by Jon Schaffer
Arranged by Russ Elton (webmaster@abysslord.com), Jordan B. (sansamppsa1@hotmail.com)

Gtr I (Eb Ab Db Gb Bb Eb) - 'Clean Guitar'
Gtr II (Eb Ab Db Gb Bb Eb) - 'Acoustic Guitar'
Gtr III (Eb Ab Db Gb Bb Eb) - 'Distortion Guitar'
Gtr IV (Eb Ab Db Gb Bb Eb) - 'Distortion Guitar'
Gtr V (Eb Ab Db Gb Bb Eb) - 'Lead Guitar'
Gtr VI (Eb Ab Db Gb Bb Eb) - 'Harmony Guitar'

 Intro
  Q=130
  Dm
 4/4
  Gtr I
  E E E E E E E E   E E E E +E  E E E   E E E E E E E E   E E E E +E  E E E
|---------5-------|-------------------|---------5-------|-------------------|
|-------6---6-----|-5-----5-(5)-6-----|-------6---6-----|-5-----5-(5)-6-----|
|-----7-------7---|---7-----------7---|-----7-------7---|---7-----------7p5-|
|---7-----------7-|-----7-----------7-|---7-----------7-|-----7-------------|
|-5---------------|-------------------|-5---------------|-------------------|
|-----------------|-------------------|-----------------|-------------------|


  Bb
  Gtr II
  Q   E E +E  Q   E   +H         H
|-------0-(0)-------|--------------------|
|-----3-------3-----|--------------------|
|-----------------3-|-(3)----------------|
|-------------------|--------------------|
|-------------------|--------------------|
|-------------------|--------------------|
|
| Gtr I
| E Q   E +E  Q.      +E  E E E +E  Q.
|-------6-(6)-------|---------6-(6)------|
|-------------6-----|-(6)-----------6----|
|-------------------|--------------------|
|-------------------|--------------------|
|---5---------------|-------5------------|
|-6-----------------|-----6--------------|


  Q   E E +E  Q   E   +H         H
|-------0-(0)-------|--------------------|
|-----3-------3-----|--------------------|
|-----------------3-|-(3)----------------|
|-------------------|--------------------|
|-------------------|--------------------|
|-------------------|--------------------|
|
| E Q   E +E  Q.      +E  E E E +E  Q.
|-------6-(6)-------|---------------6----|
|-------------6-----|-(6)-----6-(6)------|
|-------------------|--------------------|
|-------------------|--------------------|
|---5---------------|-------5------------|
|-6-----------------|-----6--------------|


   Verse
    Dm
     W                 W
||-------------------|-------------------|
||o-^6---------------|-------------------|
||--^7---------------|-------------------|
||--^7---------------|-------------------|
||o------------------|-------------------|
||-------------------|-------------------|
|
|    E E E E E E E E   E E E E +E  E E E
||-----------5-------|-------------------|
||o--------6---6-----|-5-----5-(5)-6-----|
||-------7-------7---|---7-----------7---|
||-----7-----------7-|-----7-----------7-|
||o--5---------------|-------------------|
||-------------------|-------------------|


  W                 W
|-----------------|--------------------|
|-----------------|--------------------|
|-----------------|--------------------|
|-----------------|--------------------|
|-----------------|--------------------|
|-----------------|--------------------|
|
| E E E E E E E E   E E E E +E  E E E
|---------5-------|--------------------|
|-------6---6-----|-5-----5-(5)-6------|
|-----7-------7---|---7-----------7p5--|
|---7-----------7-|-----7--------------|
|-5---------------|--------------------|
|-----------------|--------------------|


  Bb
  Gtr II
  Q   E E +E  Q   E   +H         H
|-------0-(0)-------|--------------------|
|-----3-------3-----|--------------------|
|-----------------3-|-(3)----------------|
|-------------------|--------------------|
|-------------------|--------------------|
|-------------------|--------------------|
|
| Gtr I
| E Q   E +E  Q.      +E  E E E +E  Q.
|-------6-(6)-------|---------6-(6)------|
|-------------6-----|-(6)-----------6----|
|-------------------|--------------------|
|-------------------|--------------------|
|---5---------------|-------5------------|
|-6-----------------|-----6--------------|


  Q   E E +E  Q   E   +H         H        3x
|-------0-(0)-------|---------------------||
|-----3-------3-----|--------------------o||
|-----------------3-|-(3)-----------------||
|-------------------|---------------------||
|-------------------|--------------------o||
|-------------------|---------------------||
|
| E Q   E +E  Q.      +E  E E E +E  Q.    3x
|-------6-(6)-------|---------------6-----||
|-------------6-----|-(6)-----6-(6)------o||
|-------------------|---------------------||
|-------------------|---------------------||
|---5---------------|-------5------------o||
|-6-----------------|-----6---------------||


   Chorus
    Q=140
    $
    D5    C5D5                 C5     D5    C5D5                 C5
    Gtrs III, IV
        PM|                               PM|                       PM
    E E E E H      +Q.   E +E  Q.     E E E E H      +Q.   E +E  Q  E
||---------------|------------------|--------------|-------------------|
||o--------------|------------------|--------------|-------------------|
||---------------|------------------|--------------|-------------------|
||--7---7-5-7----|-(7)---7-(7)-5----|-7---7-5-7----|-(7)---7-(7)-5-----|
||o-5---5-3-5----|-(5)---5-(5)-3----|-5---5-3-5----|-(5)---5-(5)-3--0--|
||---------------|------------------|--------------|-------------------|


                                                           To Coda
  Bb5                        C5     Bb5                        C5
      PM|                               PM|
  E E E E H      +Q.   E +E  Q  E   E E E E H      +Q.   E +E  Q  E
|--------------|------------------|--------------|-------------------||
|--------------|------------------|--------------|------------------o||
|--------------|------------------|--------------|-------------------||
|-3---3---3----|-(3)---3-(3)-5--5-|-3---3---3----|-(3)---3-(3)-5--5--||
|-1---1-0-1----|-(1)---1-(1)-3--3-|-1---1-0-1----|-(1)---1-(1)-3--3-o||
|--------------|------------------|--------------|-------------------||


 Pre-Verse
  Q=130
  Dm
  Gtrs III, IV
                     >
  W                 +W
|-----------------|---------------------|
|-----------------|---------------------|
|-----------------|---------------------|
|-7---------------|-(7)-----------------|
|-5---------------|-(5)-----------------|
|-----------------|---------------------|
|
| Gtr II
| W                  W
|-----------------|---------------------|
|-----------------|---------------------|
|-----------------|---------------------|
|-----------------|---------------------|
|-----------------|---------------------|
|-----------------|---------------------|
|
| Gtr I
| E E E E E E E E    E  E E E +E  E E E
|---------5-------|---------------------|
|-------6---6-----|--5------5-(5)-6-----|
|-----7-------7---|-----7-----------7---|
|---7-----------7-|-------7-----------7-|
|-5---------------|---------------------|
|-----------------|---------------------|


  W                 W
|-----------------|-------------------------|
|-----------------|-------------------------|
|-----------------|-------------------------|
|-----------------|-------------------------|
|-----------------|-------------------------|
|-----------------|-------------------------|
|
|                            |-3--|
| W                 E Q   E  S  S S E E E
|-----------------|-------8--6h=8p6p5---5---|
|-----------------|-------------------8-----|
|-----------------|-------------------------|
|-----------------|-------------------------|
|-----------------|-------------------------|
|-----------------|-------------------------|
|
| E E E E E E E E   E E E E +E      E E E
|---------5-------|-------------------------|
|-------6---6-----|-5-----5-(5)-----6-------|
|-----7-------7---|---7---------------7p5---|
|---7-----------7-|-----7-------------------|
|-5---------------|-------------------------|
|-----------------|-------------------------|


  Bb
  Gtr II
  W                  W
|-----------------|--------------------|
|-----------------|--------------------|
|-----------------|--------------------|
|-----------------|--------------------|
|-----------------|--------------------|
|-----------------|--------------------|
|
| Gtr I
| E Q  E +E  Q.     +E  E E E +E  Q.
|------6-(6)------|---------6-(6)------|
|------------6----|-(6)-----------6----|
|-----------------|--------------------|
|-----------------|--------------------|
|---5-------------|-------5------------|
|-6---------------|-----6--------------|


  W                  E  Q   S S  E  E  E E
|-----------------|--------------5---------||
|-----------------|---------6-8-----8--6-5-||
|-----------------|------------------------||
|-----------------|------------------------||
|-----------------|------------------------||
|-----------------|------------------------||
|
| E Q  E +E  Q.     +E  E E E   +E  Q.
|------6-(6)------|-----------------6------||
|------------6----|-(6)-----6---(6)--------||
|-----------------|------------------------||
|-----------------|------------------------||
|---5-------------|-------5----------------||
|-6---------------|-----6------------------||


   Verse
    Dm
    W                 W
||------------------|-------------------|
||o-----------------|-------------------|
||--7---------------|-------------------|
||------------------|-------------------|
||o-----------------|-------------------|
||------------------|-------------------|
|
|   E E E E E E E E   E E E E +E  E E E
||----------5-------|-------------------|
||o-------6---6-----|-5-----5-(5)-6-----|
||------7-------7---|---7-----------7---|
||----7-----------7-|-----7-----------7-|
||o-5---------------|-------------------|
||------------------|-------------------|


                             |-3--|
  W                 E Q   E  S  S S E E E
|-----------------|-------8--6h=8p6p5---5--|
|-----------------|-------------------8----|
|-----------------|------------------------|
|-----------------|------------------------|
|-----------------|------------------------|
|-----------------|------------------------|
|
| E E E E E E E E   E E E E +E      E E E
|---------5-------|------------------------|
|-------6---6-----|-5-----5-(5)-----6------|
|-----7-------7---|---7---------------7p5--|
|---7-----------7-|-----7------------------|
|-5---------------|------------------------|
|-----------------|------------------------|


  Bb
  W                  W
|-----------------|--------------------|
|-----------------|--------------------|
|-----------------|--------------------|
|-----------------|--------------------|
|-----------------|--------------------|
|-----------------|--------------------|
|
| E Q  E +E  Q.     +E  E E E +E  Q.
|------6-(6)------|---------6-(6)------|
|------------6----|-(6)-----------6----|
|-----------------|--------------------|
|-----------------|--------------------|
|---5-------------|-------5------------|
|-6---------------|-----6--------------|


                               D.S. al Coda
  W                  E  Q   S S  E  E  E E     3x
|-----------------|--------------5-------------||
|-----------------|---------6-8-----8--6-5----o||
|-----------------|----------------------------||
|-----------------|----------------------------||
|-----------------|---------------------------o||
|-----------------|----------------------------||
|
| E Q  E +E  Q.     +E  E E E   +E  Q.         3x
|------6-(6)------|-----------------6----------||
|------------6----|-(6)-----6---(6)-----------o||
|-----------------|----------------------------||
|-----------------|----------------------------||
|---5-------------|-------5-------------------o||
|-6---------------|-----6----------------------||


   Bridge
    Q=140
    &
    N.C.
    Gtr IV
    PM|    PM          PM  PM
    E E  E E  E E Q    E E E E +E   E Q
||-------------------|---------------------||
||o------------------|--------------------o||
||-------------------|---------------------||
||------10---10-8-7--|---7---7-(7)---------||
||o-8-8----8---------|-8---8-------10-8\--o||
||-------------------|---------------------||
|
|   Gtr III
|   PM|    PM          PM  PM
|   E E  E E  E E Q    E E E E +E   E Q
||-------------------|---------------------||
||o------------------|--------------------o||
||-------------------|---------------------||
||-------7----7-5----|---------------------||
||o-5-5----5------8--|-5-8-5-8-(8)--7-5\--o||
||-------------------|---------------------||


                Bb5                  C5
      PM------|        PM----|
      E S S E E H      E S S E E +E  Q  E
|-||-----------------|---------------------||
|-||o----------------|--------------------o||
|-||-----------------|---------------------||
|-||------------3----|---------3-(3)-5--5--||
|-||o-1-1-1-1-0-1----|-1-1-1-1-1-(1)-3--3-o||
|-||-----------------|---------------------||
|
|     PM------|        PM----|
|     E S S E E H      E S S E E +E  Q  E
|-||-----------------|---------------------||
|-||o----------------|--------------------o||
|-||-----------------|---------------------||
|-||------------3----|---------3-(3)-5--5--||
|-||o-1-1-1-1-0-1----|-1-1-1-1-1-(1)-3--3-o||
|-||-----------------|---------------------||


    N.C.
    PM|    PM          PM  PM
    E E  E E  E E Q    E E E E +E   E Q
||-------------------|---------------------||
||o------------------|--------------------o||
||-------------------|---------------------||
||------10---10-8-7--|---7---7-(7)---------||
||o-8-8----8---------|-8---8-------10-8\--o||
||-------------------|---------------------||
|
|   PM|    PM          PM  PM
|   E E  E E  E E Q    E E E E +E   E Q
||-------------------|---------------------||
||o------------------|--------------------o||
||-------------------|---------------------||
||-------7----7-5----|---------------------||
||o-5-5----5------8--|-5-8-5-8-(8)--7-5\--o||
||-------------------|---------------------||


                Bb5                  C5
      PM------|        PM----|
      E S S E E H      E S S E E +E  Q  E
|-||-----------------|---------------------||
|-||o----------------|--------------------o||
|-||-----------------|---------------------||
|-||------------3----|---------3-(3)-5--5--||
|-||o-1-1-1-1-0-1----|-1-1-1-1-1-(1)-3--3-o||
|-||-----------------|---------------------||
|
|     PM------|        PM----|
|     E S S E E H      E S S E E +E  Q  E
|-||-----------------|---------------------||
|-||o----------------|--------------------o||
|-||-----------------|---------------------||
|-||------------3----|---------3-(3)-5--5--||
|-||o-1-1-1-1-0-1----|-1-1-1-1-1-(1)-3--3-o||
|-||-----------------|---------------------||


 Guitar Solo
  Q=144
  D5        Bb/D      G5/D    D5                       Bb/D
  Gtr VI
   ~~~                 TP   TP   TP   TP     ~~~        ~~
   H.           E E    Q    Q    Q    Q      Q.      E  H
|-------------------|---------------------|---------------------|
|---------------6-8-|-10---11---13---15---|-13------15-13-------|
|-/7----------------|---------------------|---------------------|
|-------------------|---------------------|---------------------|
|-------------------|---------------------|---------------------|
|-------------------|---------------------|---------------------|
|
| Gtr V
|  ~~~                 TP   TP   TP   TP     ~~~        ~~
|  H.           E E    Q    Q    Q    Q      Q.      E  H
|-------------------|---------------------|---------------------|
|-------------------|---------------------|---------------------|
|-/7------------7-9-|-10---12---14---15---|-14------15-14-------|
|-------------------|---------------------|---------------------|
|-------------------|---------------------|---------------------|
|-------------------|---------------------|---------------------|
|
| Gtrs III, IV
|     PM--|   PM--|      PM|     PM-----|       PM--|     PM--|
|  E  E E E E E E E    E E  E E  E E  E E    E  E E  E  E E E E
|-------------------|---------------------|---------------------|
|-------------------|---------------------|---------------------|
|-------------------|---------------------|---------------------|
|--7--------8-------|--5------7-----------|--7----------8-------|
|--5--5-5-5-5-5-5-5-|--5-5--5-5--5-5--5-5-|--5--5-5--5--5-5-5-5-|
|-------------------|---------------------|---------------------|


  G5/D              D5
   S  S  S  S  S  S  S  S S  S  S S S  S S S
|---------------------------------------------|
|-11-15-13-11-10-13-11-10-8-12-10-8-6-10-8-6--|
|---------------------------------------------|
|---------------------------------------------|
|---------------------------------------------|
|---------------------------------------------|
|
|  S  S  S  S  S  S  S  S S  S  S S S  S S S
|---------------------------------------------|
|---------------------------------------------|
|-12-15-14-12-10-14-12-10-9-12-10-9-7-10-9-7--|
|---------------------------------------------|
|---------------------------------------------|
|---------------------------------------------|
|
|        PM---|           PM---------------|
|  E     E     E     E    E     E   S  S S S
|---------------------------------------------|
|---------------------------------------------|
|---------------------------------------------|
|--5-----------------7------------------------|
|--5-----5-----5-----5----5-----5---5--5-0-0--|
|---------------------------------------------|


  C5      G#/C            F5/C   C5
  ~~~~~~~~~~~~             ~~~~~~~~~~~~
                  |-3-|                    |-3-|
  H       +Q.     S S S    H       +Q.     S S S
|-----------------------|------------------------|
|-5-------(5)-----5p3h5-|-/6-------(6)-----6p5h6-|
|-----------------------|------------------------|
|-----------------------|------------------------|
|-----------------------|------------------------|
|-----------------------|------------------------|
|
| ~~~~~~~~~~~~             ~~~~~~~~~~~~
|                 |-3-|                    |-3-|
| H       +Q.     S S S    H       +Q.     S S S
|-----------------------|------------------------|
|-----------------------|------------------------|
|-5-------(5)-----5p3h5-|-/7-------(7)-----7p5h7-|
|-----------------------|------------------------|
|-----------------------|------------------------|
|-----------------------|------------------------|
|
|   PM--|     PM--|          PM|    PM-----|
| E E E E  E  E E E        E E E E  E  E E E
|-----------------------|------------------------|
|-----------------------|------------------------|
|-----------------------|------------------------|
|-5--------6------------|--3-----5---------------|
|-3-3-3-3--3--3-3-3-----|--3-3-3-3--3--3-3-3-----|
|-----------------------|------------------------|


           G#/C            F5/C     C5
   ~~~~~~~~~~~~                          ~~
                   |-3-|
   H       +Q.     S S S     Q    Q    E Q.
|------------------------|---------------------------|
|-/8-------(8)-----8p6h8-|-/10---11---10-8-----------|
|------------------------|---------------------------|
|------------------------|---------------------------|
|------------------------|---------------------------|
|------------------------|---------------------------|
|
|  ~~~~~~~~~~~~                             ~
|                  |-3-|
|  H       +Q.     S S S     Q    Q    Q    Q
|------------------------|---------------------------|
|------------------------|---------------------------|
|-/9-------(9)-----9p7h9-|-/10---12---10----9--------|
|------------------------|---------------------------|
|------------------------|---------------------------|
|------------------------|---------------------------|
|
|    PM--|     PM--|           PM|     PM---------|
|  E E E E  E  E E E         E E  E E  E E  S S S S
|------------------------|---------------------------|
|------------------------|---------------------------|
|------------------------|---------------------------|
|--5--------6------------|---3------5----------------|
|--3-3-3-3--3--3-3-3-----|---3-3--3-3--3-3--3-3-0-0--|
|------------------------|---------------------------|


  D5                      Bb/D
   S  S  S  S  S  S  S  S  S  S  S  S  S  S  S  S
|-------17h19p17----------17h20p17----------17h19p|
|-17h18----------18p17h18----------18p17h18-------|
|-------------------------------------------------|
|-------------------------------------------------|
|-------------------------------------------------|
|-------------------------------------------------|
|
|  S  S  S  S  S  S  S  S  S  S  S  S  S  S  S  S
|-------10h12p10----------10h13p10----------10h12p|
|-10h11----------11p10h11----------11p10h11-------|
|-------------------------------------------------|
|-------------------------------------------------|
|-------------------------------------------------|
|-------------------------------------------------|
|
|        PM---------|            PM---------|
|  E     E     E     E     E     E     E     E
|-------------------------------------------------|
|-------------------------------------------------|
|-------------------------------------------------|
|--7-----------------------8----------------------|
|--5-----5-----5-----5-----5-----5-----5-----5----|
|-------------------------------------------------|


  G5/D           D5                                                Bb/D
                                                                    |----3----|
   S  S  e  S  S  S  S  S  S  S  S  S  S  E    S  S  S  S  S  S  e  q    q    q
|-17-------19p17-20p17-22p17-20p17-19p17-20-|-------17h19p17-------17---19---20-----|
|----18p17----------------------------------|-17h18----------18p17------------------|
|-------------------------------------------|---------------------------------------|
|-------------------------------------------|---------------------------------------|
|-------------------------------------------|---------------------------------------|
|-------------------------------------------|---------------------------------------|
|
|                                                                   |----3----|
|  S  S  e  S  S  S  S  S  S  S  S  S  S  E    S  S  S  S  S  S  e  q    q    q
|-10-------12p10-13p10-15p10-13p10-12p10-13-|-------10h12p10-------10---12---13-----|
|----11p10----------------------------------|-10h11----------11p10------------------|
|-------------------------------------------|---------------------------------------|
|-------------------------------------------|---------------------------------------|
|-------------------------------------------|---------------------------------------|
|-------------------------------------------|---------------------------------------|
|
|        PM|            PM---------------|           PM---------|     PM--------|
|  E     E  E     E     E     E     E     E    E     E     E     E  E E    E    E
|-------------------------------------------|---------------------------------------|
|-------------------------------------------|---------------------------------------|
|-------------------------------------------|---------------------------------------|
|--5--------------7-------------------------|--7--------------------8---------------|
|--5-----5--5-----5-----5-----5-----5-----5-|--5-----5-----5-----5--5-5----5----5---|
|-------------------------------------------|---------------------------------------|


  G5/D       D5
                          |----3----|
   H            +E   +E   E    E    E
|-20b22========(20)r(20)-20---19---17---|
|---------------------------------------|
|---------------------------------------|
|---------------------------------------|
|---------------------------------------|
|---------------------------------------|
|
|                         |----3----|
|  H            +E   +E   E    E    E
|-13b15========(13)r(13)-13---12---10---|
|---------------------------------------|
|---------------------------------------|
|---------------------------------------|
|---------------------------------------|
|---------------------------------------|
|
|        PM|     PM-------------------|
|  E     E E E   E    E   S S    S    S
|---------------------------------------|
|---------------------------------------|
|---------------------------------------|
|--5---------7--------------------------|
|--5-----5-5-5---5----5---5-5----0----0-|
|---------------------------------------|


  C5       G#/C           F5/C    C5
   ~~                                       ~~
                                   |--3--|
   H        +E   Q.        Q.      S  S  S  H
|-----------------------|----------------------------|
|-20-------(20)-20\-----|----------------------------|
|-----------------------|-10------12p10p=9--9--------|
|-----------------------|----------------------------|
|-----------------------|----------------------------|
|-----------------------|----------------------------|
|
|  ~~                                       ~~
|                                  |--3--|
|  H        +E   Q.        Q.      S  S  S  H
|-----------------------|----------------------------|
|-13-------(13)-13\-----|-11------13p11p10-----------|
|-----------------------|------------------12--------|
|-----------------------|----------------------------|
|-----------------------|----------------------------|
|-----------------------|----------------------------|
|
|    PM--|       PM---|       PM|           PM----|
|  E E E E   E   E  E E    E  E E  E        E E E E
|-----------------------|----------------------------|
|-----------------------|----------------------------|
|-----------------------|----------------------------|
|--5---------6----------|--3-------5-----------------|
|--3-3-3-3---3---3--3-3-|--3--3-3--3--------3-3-3-3--|
|-----------------------|----------------------------|


                      G#/C
    |-3--|  |---3---|
   +Q    E  E  E    E  S  S  S  S  S  S  E
|---------------------------10-12-13p10-12-|
|------------------10-11-13----------------|
|--(9)---9-10-12---------------------------|
|------------------------------------------|
|------------------------------------------|
|------------------------------------------|
|
|   |-3--|  |---3---|
|  +Q    E  E  E    E  S  S  S  S  S  S  E
|---------------------------10-12-13p10-12-|
|------------------10-11-13----------------|
|-(12)---9-10-12---------------------------|
|------------------------------------------|
|------------------------------------------|
|------------------------------------------|
|
|      PM--------|           PM---------|
|   E  E    E    E     E     E     E     E
|------------------------------------------|
|------------------------------------------|
|------------------------------------------|
|---5------------------6-------------------|
|---3--3----3----3-----3-----3-----3-----3-|
|------------------------------------------|


  F5/C                       C5
   |------6-------|  |--3--|     |------6-------|
   S  S  S  S  S  S  S  S  S  E  S  S  S  S  S  S  S  S  S  S
|-15p12----------12-15p12s13-13-17p13----------12-17p13-13s10-|
|-------13----13----------------------15----15----------------|
|----------12----------------------------14-------------------|
|-------------------------------------------------------------|
|-------------------------------------------------------------|
|-------------------------------------------------------------|
|
|  |------6-------|  |--3--|     |------6-------|
|  S  S  S  S  S  S  S  S  S  E  S  S  S  S  S  S  S  S  S  S
|-15p12----------12-15p12s13-13-17p13----------12-17p13-13s10-|
|-------13----13----------------------15----15----------------|
|----------12----------------------------14-------------------|
|-------------------------------------------------------------|
|-------------------------------------------------------------|
|-------------------------------------------------------------|
|
|           PM------|            PM------------------------|
|  E        E        E        E  E        E        S  S  S  S
|-------------------------------------------------------------|
|-------------------------------------------------------------|
|-------------------------------------------------------------|
|--3--------------------------5-------------------------------|
|--3--------3--------3--------3--3--------3--------3--3--0--0-|
|-------------------------------------------------------------|


  Q=140
  N.C.(Bb5)                     N.C.(C5)
  Gtr V
   E  E    E  E  +Q    E  E       Q      Q    H
|-10-12---13-10-(10)--10-12---|-/15-----13---12tr13--------|
|-----------------------------|----------------------------|
|-----------------------------|----------------------------|
|-----------------------------|----------------------------|
|-----------------------------|----------------------------|
|-----------------------------|----------------------------|
|
| Gtrs III, IV
|     PM|                 PM|       PM|                PM|
|  E  S S  E  E  +Q    E  S S     E S S  E E +Q      E S S
|-----------------------------|----------------------------|
|-----------------------------|----------------------------|
|-----------------------------|----------------------------|
|----------3------------------|----------5-----------------|
|--1--1-1-----1--(1)---1--0-0-|---3-3-3----3-(3)-----3-0-0-|
|-----------------------------|----------------------------|


  C5 D5                            C5
   E  E  E    E  +Q    E  E      E  E E    E  +Q    E  E
|-13-12-13---10-(10)--10-10---|-13-12-----12-(12)--12-10----|
|-----------------------------|-----------------------------|
|-----------------------------|-----------------------------|
|-----------------------------|-----------------------------|
|-----------------------------|-----------------------------|
|-----------------------------|-----------------------------|
|
|        PM|              PM|         PM|              PM|
|  E  E  S S  E  +Q    E  S S    E  E S S  E  +Q    E  S S
|-----------------------------|-----------------------------|
|-----------------------------|-----------------------------|
|-----------------------------|-----------------------------|
|--5s=7-------7--(7)---7------|--7s=5------5--(5)---5-------|
|--3s=5--0-0--5--(5)---5--0-0-|--5s=3-0-0--3--(3)---3--0-0--|
|-----------------------------|-----------------------------|


  N.C.(Bb5)                     N.C.(C5)
   E  E    E  E  +Q    E  E       Q      Q    H
|-10-12---13-10-(10)--10-12---|-/15-----13---12tr13--------|
|-----------------------------|----------------------------|
|-----------------------------|----------------------------|
|-----------------------------|----------------------------|
|-----------------------------|----------------------------|
|-----------------------------|----------------------------|
|
|     PM|                 PM|       PM|                PM|
|  E  S S  E  E  +Q    E  S S     E S S  E E +Q      E S S
|-----------------------------|----------------------------|
|-----------------------------|----------------------------|
|-----------------------------|----------------------------|
|----------3------------------|----------5-----------------|
|--1--1-1-----1--(1)---1--0-0-|---3-3-3----3-(3)-----3-0-0-|
|-----------------------------|----------------------------|


  C5 D5                            C5
   E  E  E    E  +Q    E  E      E  E E    E  +E   S  S  S  S  E
|-13-12-13---10-(10)--10-10---|-13-12-----12-(12)-12p10----10-12-||
|-----------------------------|-------------------------10-------||
|-----------------------------|----------------------------------||
|-----------------------------|----------------------------------||
|-----------------------------|----------------------------------||
|-----------------------------|----------------------------------||
|
|        PM|              PM|         PM|
|  E  E  S S  E  +Q    E  S S    E  E S S  E  +Q         Q
|-----------------------------|----------------------------------||
|-----------------------------|----------------------------------||
|-----------------------------|----------------------------------||
|--5s=7-------7--(7)---7------|--7s=5------5--(5)--------5-------||
|--3s=5--0-0--5--(5)---5--0-0-|--5s=3-0-0--3--(3)--------3-------||
|-----------------------------|----------------------------------||


 Chorus
  D5       C5 D5                    C5     D5    C5D5                 C5
  Gtr VI
                                 >
   Q     E  E  H       +H       +H         W               W
|------/17-15-13----|-(13)-----(13)------|--------------|------------------|
|-------------------|--------------------|--------------|------------------|
|-------------------|--------------------|--------------|------------------|
|-------------------|--------------------|--------------|------------------|
|-------------------|--------------------|--------------|------------------|
|-------------------|--------------------|--------------|------------------|
|
| Gtr V
|                                >
|  E E   E  E  H       +H       +H         W               W
|-10---/13-12-10----|-(10)-----(10)------|--------------|------------------|
|-------------------|--------------------|--------------|------------------|
|-------------------|--------------------|--------------|------------------|
|-------------------|--------------------|--------------|------------------|
|-------------------|--------------------|--------------|------------------|
|-------------------|--------------------|--------------|------------------|
|
| Gtrs III, IV
|        PM|                                   PM|                       PM
|  E E   E  E  H       +Q.   E  +E  Q.     E E E E H      +Q.   E +E  Q  E
|-------------------|--------------------|--------------|------------------|
|-------------------|--------------------|--------------|------------------|
|-------------------|--------------------|--------------|------------------|
|--7-----7--5--7----|--(7)---7--(7)-5----|-7---7-5-7----|-(7)---7-(7)-5----|
|--5-----5--3--5----|--(5)---5--(5)-3----|-5---5-3-5----|-(5)---5-(5)-3--0-|
|-------------------|--------------------|--------------|------------------|


  Bb5                        C5     Bb5                        C5
  Gtrs III, IV
      PM|                               PM|
  E E E E H      +Q.   E +E  Q  E   E E E E H      +Q.   E +E  Q  E
|--------------|------------------|--------------|------------------|
|--------------|------------------|--------------|------------------|
|--------------|------------------|--------------|------------------|
|-3---3---3----|-(3)---3-(3)-5--5-|-3---3---3----|-(3)---3-(3)-5--5-|
|-1---1-0-1----|-(1)---1-(1)-3--3-|-1---1-0-1----|-(1)---1-(1)-3--3-|
|--------------|------------------|--------------|------------------|


  D5    C5D5                 C5     D5    C5D5                 C5
      PM|                               PM|                       PM
  E E E E H      +Q.   E +E  Q.     E E E E H      +Q.   E +E  Q  E
|--------------|------------------|--------------|------------------|
|--------------|------------------|--------------|------------------|
|--------------|------------------|--------------|------------------|
|-7---7-5-7----|-(7)---7-(7)-5----|-7---7-5-7----|-(7)---7-(7)-5----|
|-5---5-3-5----|-(5)---5-(5)-3----|-5---5-3-5----|-(5)---5-(5)-3--0-|
|--------------|------------------|--------------|------------------|


  Bb5                        C5     Bb5                        C5
      PM|                               PM|
  E E E E H      +Q.   E +E  Q  E   E E E E H      +Q.   E +E  Q  E
|--------------|------------------|--------------|------------------||
|--------------|------------------|--------------|------------------||
|--------------|------------------|--------------|------------------||
|-3---3---3----|-(3)---3-(3)-5--5-|-3---3---3----|-(3)---3-(3)-5--5-||
|-1---1-0-1----|-(1)---1-(1)-3--3-|-1---1-0-1----|-(1)---1-(1)-3--3-||
|--------------|------------------|--------------|------------------||


 Out-Chorus
  D5       C5 D5                           C5
  Gtr V
   E  E  E  E  +E   E  Q     +Q    Q    E   E   Q
|-------------------------|------------------------|
|-11-10----10-(10)-11-----|-------11---11--10------|
|-------10------------10--|-(10)---------------10--|
|-------------------------|------------------------|
|-------------------------|------------------------|
|-------------------------|------------------------|
|
| Gtrs III, IV
|        PM|
|  E  E  E  E   H            +Q.     E +E   Q.
|-------------------------|------------------------|
|-------------------------|------------------------|
|-------------------------|------------------------|
|--7-----7--5---7---------|--(7)-----7-(7)--5------|
|--5-----5--3---5---------|--(5)-----5-(5)--3------|
|-------------------------|------------------------|


  D5       C5 D5                           C5
   E  E  E  E  +E   E  Q     +Q    Q    E   E  Q
|-------------------------|------------------------|
|-11-10----10-(10)-11-----|-------11---11--10------|
|-------10------------10--|-(10)--------------10---|
|-------------------------|------------------------|
|-------------------------|------------------------|
|-------------------------|------------------------|
|
|        PM|                                     PM
|  E  E  E  E   H            +Q.     E +E   Q    E
|-------------------------|------------------------|
|-------------------------|------------------------|
|-------------------------|------------------------|
|--7-----7--5---7---------|--(7)-----7-(7)--5------|
|--5-----5--3---5---------|--(5)-----5-(5)--3----0-|
|-------------------------|------------------------|


  Bb5                                     C5
   Q.      E  +E   E  Q     +Q    Q    E   E  Q
|------------------------|------------------------|
|-13------11-(11)-10-11--|-(11)--13---13--11-10---|
|------------------------|------------------------|
|------------------------|------------------------|
|------------------------|------------------------|
|------------------------|------------------------|
|
|       PM|
|  E  E E  E   H            +Q.     E +E   Q    E
|------------------------|------------------------|
|------------------------|------------------------|
|------------------------|------------------------|
|--3----3------3---------|--(3)-----3-(3)--5----5-|
|--1----1--0---1---------|--(1)-----1-(1)--3----3-|
|------------------------|------------------------|


  Bb5                                     C5
   Q.      E  +E   E  Q     +Q    Q    E   E  Q
|------------------------|------------------------||
|-13------11-(11)-10-11--|-(11)--13---13--11-10---||
|------------------------|------------------------||
|------------------------|------------------------||
|------------------------|------------------------||
|------------------------|------------------------||
|
|       PM|
|  E  E E  E   H            +Q.     E +E   Q    E
|------------------------|------------------------||
|------------------------|------------------------||
|------------------------|------------------------||
|--3----3------3---------|--(3)-----3-(3)--5----5-||
|--1----1--0---1---------|--(1)-----1-(1)--3----3-||
|------------------------|------------------------||


   Outro
    D5       C5 D5                           C5
    Gtr VI
     E  E  E  E  +E   E  Q     +Q    Q    E   E   Q
||--10--8-----8--(8)-10-----|-------10---10---8------|
||o-------10------------10--|-(10)---------------10--|
||--------------------------|------------------------|
||--------------------------|------------------------|
||o-------------------------|------------------------|
||--------------------------|------------------------|
|
|   Gtr V
|    E  E  E  E  +E   E  Q     +Q    Q    E   E   Q
||--------------------------|------------------------|
||o-11-10----10-(10)-11-----|-------11---11--10------|
||--------10------------10--|-(10)---------------10--|
||--------------------------|------------------------|
||o-------------------------|------------------------|
||--------------------------|------------------------|
|
|   Gtrs III, IV
|          PM|
|    E  E  E  E   H            +Q.     E +E   Q.
||--------------------------|------------------------|
||o-------------------------|------------------------|
||--------------------------|------------------------|
||---7-----7--5---7---------|--(7)-----7-(7)--5------|
||o--5-----5--3---5---------|--(5)-----5-(5)--3------|
||--------------------------|------------------------|


  D5       C5 D5                           C5
   E  E  E  E  +E   E  Q     +Q    Q    E   E  Q
|-10--8-----8--(8)-10-----|-------10---10---8-------|
|-------10------------10--|-(10)--------------10----|
|-------------------------|-------------------------|
|-------------------------|-------------------------|
|-------------------------|-------------------------|
|-------------------------|-------------------------|
|
|  E  E  E  E  +E   E  Q     +Q    Q    E   E  Q
|-------------------------|-------------------------|
|-11-10----10-(10)-11-----|-------11---11--10-------|
|-------10------------10--|-(10)--------------10----|
|-------------------------|-------------------------|
|-------------------------|-------------------------|
|-------------------------|-------------------------|
|
|        PM|                                     PM
|  E  E  E  E   H            +Q.     E +E   Q    E
|-------------------------|-------------------------|
|-------------------------|-------------------------|
|-------------------------|-------------------------|
|--7-----7--5---7---------|--(7)-----7-(7)--5-------|
|--5-----5--3---5---------|--(5)-----5-(5)--3----0--|
|-------------------------|-------------------------|


  Bb5                                     C5
   Q.      E  +E   E  Q     +Q    Q    E   E  Q
|-12------10-(10)--8-10--|-(10)--12---12--10--8---|
|------------------------|------------------------|
|------------------------|------------------------|
|------------------------|------------------------|
|------------------------|------------------------|
|------------------------|------------------------|
|
|  Q.      E  +E   E  Q     +Q    Q    E   E  Q
|------------------------|------------------------|
|-13------11-(11)-10-11--|-(11)--13---13--11-10---|
|------------------------|------------------------|
|------------------------|------------------------|
|------------------------|------------------------|
|------------------------|------------------------|
|
|       PM|
|  E  E E  E   H            +Q.     E +E   Q    E
|------------------------|------------------------|
|------------------------|------------------------|
|------------------------|------------------------|
|--3----3------3---------|--(3)-----3-(3)--5----5-|
|--1----1--0---1---------|--(1)-----1-(1)--3----3-|
|------------------------|------------------------|


  Bb5                                     C5
   Q.      E  +E   E  Q     +Q    Q    E   E  Q
|-12------10-(10)--8-10--|-(10)--12---12--10--8----||
|------------------------|------------------------o||
|------------------------|-------------------------||
|------------------------|-------------------------||
|------------------------|------------------------o||
|------------------------|-------------------------||
|
|  Q.      E  +E   E  Q     +Q    Q    E   E  Q
|------------------------|-------------------------||
|-13------11-(11)-10-11--|-(11)--13---13--11-10---o||
|------------------------|-------------------------||
|------------------------|-------------------------||
|------------------------|------------------------o||
|------------------------|-------------------------||
|
|       PM|
|  E  E E  E   H            +Q.     E +E   Q    E
|------------------------|-------------------------||
|------------------------|------------------------o||
|------------------------|-------------------------||
|--3----3------3---------|--(3)-----3-(3)--5----5--||
|--1----1--0---1---------|--(1)-----1-(1)--3----3-o||
|------------------------|-------------------------||



Duration Legend
---------------
W - whole; H - half; Q - quarter; E - 8th; S - 16th; T - 32nd; X - 64th; a - acciaccatura
+ - note tied to previous; . - note dotted; .. - note double dotted
Uncapitalized letters represent notes that are staccato (1/2 duration)
Irregular groupings are notated above the duration line
Duration letters will always appear directly above the note/fret number it represents the
duration for.  Duration letters with no fret number below them represent rests.  Multi-
bar rests are notated in the form Wxn, where n is the number of bars to rest for.  Low
melody durations appear below the staff

Tablature Legend
----------------
 h   - hammer-on
 p   - pull-off
 b   - bend
 pb  - pre-bend
 r   - bend release (if no number after the r, then release immediately)
 /\  - slide into or out of (from/to "nowhere")
 s   - legato slide
 S   - shift slide
 - natural harmonic
[n]  - artificial harmonic
n(n) - tapped harmonic
 ~   - vibrato
 tr  - trill
 T   - tap
 TP  - trem. picking
 PM  - palm muting
\n/  - tremolo bar dip; n = amount to dip
 \n  - tremolo bar down
 n/  - tremolo bar up
/n\  - tremolo bar inverted dip
 =   - hold bend; also acts as connecting device for hammers/pulls
 <> - volume swell (louder/softer)
 x   - on rhythm slash represents muted slash
 o   - on rhythm slash represents single note slash

Misc Legend
-----------
 |  - bar
||  - double bar
||o - repeat start
o|| - repeat end
*|  - double bar (ending)
 :  - bar (freetime)
 $  - Segno
 &  - Coda
Tempo markers -  = BPM(8/16=s8/s16), where s8 = swing 8ths, s16 = swing 16ths

Добавлено: 29.08.2013
Другие материалы по этой песне:

Страница создана 07.04.2012
http://primanota.ru/iced-earth/blessed-are-you-chords.htm
Привет, Гость.
Предлагаем пройти революционный курс по гитаре.
Подарок от PrimaNota.Ru, забирай!