PrimaNota.ru - самый крупный в мире бесплатный архив песенных текстов, аккордов, табулатур и нот


Iced Earth - Burnt Offerings - текст песни, таба, бас-таба, видео

Регистрация Запомнить меня
Войти через:  Facebook Google Twitter Vk Yandex Mail.ru

Iced Earth - Burnt Offerings - текст песни, таба, бас-таба, видео

Печатать
Просмотров: 84
Авторы музыки: Randy Shawver, Jon Schaffer
Авторы текста: Jon Schaffer
As recorded by Iced Earth
(From the 1995 Album BURNT OFFERINGS)


Transcribed by Gary Marshall

 Words by Schaffer Music by Schaffer, Shawver

 

Gtr I (E A D G B E) - 'Untitled'
Gtr II (E A D G B E) - 'Untitled'
Gtr III (E A D G B E) - 'Untitled'
Gtr IV (E A D G B E) - 'Untitled'
Gtr V (E A D G B E) - 'Untitled'


   Intro
   4/4
    Gtr IV
     E  E  E  E  E  E  E  E    E  E  E  E  E  E  E  E
||--17----17-19----17-20----|-17-22----17-20----19----|
||o----17-------17-------17-|-------17-------17----17-|
||--------------------------|-------------------------|
||--------------------------|-------------------------|
||o-------------------------|-------------------------|
||--------------------------|-------------------------|


   E  E  E  E  E  E  E  E    E  E  E  E  E  E  E  E
|-17----17-19----17-20----|-17-22----17-20----19-----||
|----18-------18-------18-|-------18-------18----18-o||
|-------------------------|--------------------------||
|-------------------------|--------------------------||
|-------------------------|-------------------------o||
|-------------------------|--------------------------||


     E  E  E  E  E  E  E  E    E   E  E  E  E  E  E  E
||--17----17-19----17-20----|-17--22----17-20----19----|
||o----17-------17-------17-|--------17-------17----17-|
||--------------------------|--------------------------|
||--------------------------|--------------------------|
||o-------------------------|--------------------------|
||--------------------------|--------------------------|
|
|   Gtr V
|    W                        +W
||--------------------------|--------------------------|
||o-------------------------|--------------------------|
||--------------------------|--------------------------|
||--------------------------|--------------------------|
||o--0----------------------|-(0)----------------------|
||--------------------------|--------------------------|


   E  E  E  E  E  E  E  E    E   E  E  E  E  E  E  E
|-17----17-19----17-20----|-17--22----17-20----19------||
|----18-------18-------18-|--------18-------18----18--o||
|-------------------------|----------------------------||
|-------------------------|----------------------------||
|-------------------------|---------------------------o||
|-------------------------|----------------------------||
|
|  W                        +W
|-------------------------|----------------------------||
|-------------------------|---------------------------o||
|-------------------------|----------------------------||
|-------------------------|----------------------------||
|-------------------------|---------------------------o||
|--1----------------------|-(1)------------------------||


    Q=180
    Gtr II
    W                     E  E H.
||----------------------|----------------------|
||o---------------------|----------------------|
||----------------------|----------------------|
||----------------------|----------------------|
||o-7-------------------|-6--6-----------------|
||--5-------------------|-4--4-----------------|
|
|   Gtr III
|   PM------------------------------------------
|   E  E E  E E  E E  E   E  E E   E E  E E  E
||----------------------|----------------------|
||o---------------------|----------------------|
||----------------------|----------------------|
||--7-10-9-10-7-10-7-10-|-6-10-9--10-6-10-6-10-|
||o---------------------|----------------------|
||----------------------|----------------------|


  H         +E   E E  E   W
|-----------------------|-----------------------||
|-----------------------|----------------------o||
|-----------------------|-----------------------||
|-----------------------|-----------------------||
|-7---------(7)----9--7-|-6--------------------o||
|-5---------(5)--0-7--5-|-4---------------------||
|
|------------------------------------------|
| E  E E  E  E   E E  E   E  E E  E E  E E  E
|-----------------------|-----------------------||
|-----------------------|----------------------o||
|-----------------------|-----------------------||
|-7-10-9-10--7--10-7-10-|-6-10-9-10-6-10-6-10---||
|-----------------------|----------------------o||
|-----------------------|-----------------------||


  q    q   q    q     q   q    q    q
|-9---12---9---12---|-8---9---11---12---|
|-------------------|-------------------|
|-------------------|-------------------|
|-------------------|-------------------|
|-------------------|-------------------|
|-------------------|-------------------|
|
| PM-------------------------------------
| E E  E E E E  E E   E E E E  E E  E E
|-------------------|-------------------|
|-------------------|-------------------|
|-------------------|-------------------|
|-------------------|-------------------|
|-4-7--6-7-4-7--6-7-|-3-7-6-7--3-7--6-7-|
|-------------------|-------------------|


  q    q   q    q     q   q    q    q
|-9---12---9---12---|-8---9---11---12----|
|-------------------|--------------------|
|-------------------|--------------------|
|-------------------|--------------------|
|-------------------|--------------------|
|-------------------|--------------------|
|
|-------------------------------------|
| E E  E E E E  E E   E E E E  E E  E E
|-------------------|--------------------|
|-------------------|--------------------|
|-------------------|--------------------|
|-------------------|--------------------|
|-4-7--6-7-4-7--6-7-|-3-7-6-7--3-7--6-7--|
|-------------------|--------------------|


   q    q    q    q      q    q    q    q
|-12---16---12---16---|-11---12---14---16---|
|-14---17---14---17---|-13---14---16---17---|
|---------------------|---------------------|
|---------------------|---------------------|
|---------------------|---------------------|
|---------------------|---------------------|
|
|  PM----------------------------------------
|  E E  E E  E E  E E    E E  E E  E E  E E
|---------------------|---------------------|
|---------------------|---------------------|
|---------------------|---------------------|
|---------------------|---------------------|
|--4-7--6-7--4-7--6-7-|--3-7--6-7--3-7--6-7-|
|---------------------|---------------------|


   q    q    q    q      q    q    q    q
|-12---16---12---16---|-11---12---14---16----|
|-14---17---14---17---|-13---14---16---17----|
|---------------------|----------------------|
|---------------------|----------------------|
|---------------------|----------------------|
|---------------------|----------------------|
|
|-----------------------------------------|
|  E E  E E  E E  E E    E E  E E  E E  E E
|---------------------|----------------------|
|---------------------|----------------------|
|---------------------|----------------------|
|---------------------|----------------------|
|--4-7--6-7--4-7--6-7-|--3-7--6-7--3-7--6-7--|
|---------------------|----------------------|


 Pre-Verse
  q     H.                     H             Q  Q
|----------------------------|----------------------|
|----------------------------|----------------------|
|-6--------------------------|---------------9--9---|
|-6--------------------------|---------------9--9---|
|-4--------------------------|---------------7--7---|
|----------------------------|----------------------|
|
|   PM-----|   PM----|   PM------|   PM----|
| E S S S  S E S S S S E S S   S S E S S S S Q  Q
|----------------------------|----------------------|
|----------------------------|----------------------|
|----------------------------|---------------9--9---|
|-6----------7---------6-----|-----6---------9--9\--|
|-4-4-4-4--4-5-5-5-5-5-4-4-4-|-4-4-4-4-4-4-4-7--7\--|
|----------------------------|----------------------|


  q     H.                     H             Q  Q
|----------------------------|----------------------|
|----------------------------|----------------------|
|-6--------------------------|---------------9--9---|
|-6--------------------------|---------------9--9---|
|-4--------------------------|---------------7--7---|
|----------------------------|----------------------|
|
|   PM-----|   PM----|   PM------|   PM----|
| E S S S  S E S S S S E S S   S S E S S S S Q  Q
|----------------------------|----------------------|
|----------------------------|----------------------|
|----------------------------|---------------9--9---|
|-6----------7---------6-----|-----6---------9--9\--|
|-4-4-4-4--4-5-5-5-5-5-4-4-4-|-4-4-4-4-4-4-4-7--7\--|
|----------------------------|----------------------|


  W                           +W
|---------------------------|-----------------------|
|---------------------------|-----------------------|
|-5-------------------------|-(5)-------------------|
|-5-------------------------|-(5)-------------------|
|-3-------------------------|-(3)-------------------|
|---------------------------|-----------------------|
|
|   PM----|   PM----|   PM--------|   PM----|
| E S S S S E S S S S E S S    S  S E S S S S Q  Q
|---------------------------|-----------------------|
|---------------------------|-----------------------|
|---------------------------|-----------------5--5--|
|-5---------5---------5-----|-------5---------5--5--|
|-3-3-3-3-3-3-3-3-3-3-3-3-3-|--3--3-3-3-3-3-3-3--3--|
|---------------------------|-----------------------|


   1st Verse
    Q.         Q.         Q       +E    Q.         Q  Q
||------------------------------|------------------------|
||o-----------------------------|------------------------|
||--6----------7----------6-----|-(6)---6----------9--9--|
||--6----------7----------6-----|-(6)---6----------9--9--|
||o-4----------5----------4-----|-(4)---4----------7--7--|
||------------------------------|------------------------|
|
|      PM----|    PM----|   PM--------|    PM----|
|   E  S S S S E  S S S S E S S    S  S E  S S S S Q  Q
||------------------------------|------------------------|
||o-----------------------------|------------------------|
||------------------------------|------------------9--9--|
||--6----------7----------6-----|-------6----------9--9--|
||o-4--4-4-4-4-5--5-5-5-5-4-4-4-|--4--4-4--4-4-4-4-7--7--|
||------------------------------|------------------------|


  Q.         Q.         Q       +E    Q.         Q  Q
|-----------------------------|------------------------|
|-----------------------------|------------------------|
|-6----------7----------6-----|-(6)---6----------9--9--|
|-6----------7----------6-----|-(6)---6----------9--9--|
|-4----------5----------4-----|-(4)---4----------7--7--|
|-----------------------------|------------------------|
|
|    PM----|    PM----|   PM--------|    PM----|
| E  S S S S E  S S S S E S S    S  S E  S S S S Q  Q
|-----------------------------|------------------------|
|-----------------------------|------------------------|
|-----------------------------|------------------9--9--|
|-6----------7----------6-----|-------6----------9--9--|
|-4--4-4-4-4-5--5-5-5-5-4-4-4-|--4--4-4--4-4-4-4-7--7--|
|-----------------------------|------------------------|


  W                           +W                     4x
|---------------------------|------------------------||
|---------------------------|-----------------------o||
|-5-------------------------|-(5)--------------------||
|-5-------------------------|-(5)--------------------||
|-3-------------------------|-(3)-------------------o||
|---------------------------|------------------------||
|
|   PM----|   PM----|   PM--------|   PM----|
| E S S S S E S S S S E S S    S  S E S S S S Q  Q   4x
|---------------------------|------------------------||
|---------------------------|-----------------------o||
|---------------------------|-----------------5--5---||
|-5---------5---------5-----|-------5---------5--5---||
|-3-3-3-3-3-3-3-3-3-3-3-3-3-|--3--3-3-3-3-3-3-3--3--o||
|---------------------------|------------------------||


   Bridge
    W               +W                 +W                 +H..            E
||----------------|------------------|------------------|-------------------|
||o---------------|------------------|------------------|-------------------|
||----------------|------------------|------------------|-------------------|
||--6-------------|-(6)--------------|-(6)--------------|-(6)-------------4-|
||o-4-------------|-(4)--------------|-(4)--------------|-(4)-------------2-|
||----------------|------------------|------------------|-------------------|
|
|   Q  E E Q  E E   +E  E E E Q  E E   +E  E E E Q  E E   +E   E E E Q  E E
||----------------|------------------|------------------|-------------------|
||o---------------|------------------|------------------|-------------------|
||----------------|------------------|------------------|-------------------|
||-----6-7-6--4---|-------6-7-6--4---|-------6-7-6--4---|--------6-7-6--4---|
||o-4-----------4-|-(4)-4----------4-|-(4)-4----------4-|-(4)--4----------2-|
||----------------|------------------|------------------|-------------------|


  +W                 +W                 +W                 +W
|------------------|------------------|------------------|--------------------||
|------------------|------------------|------------------|-------------------o||
|------------------|------------------|------------------|--------------------||
|-(4)--------------|-(4)--------------|-(4)--------------|-(4)----------------||
|-(2)--------------|-(2)--------------|-(2)--------------|-(2)---------------o||
|------------------|------------------|------------------|--------------------||
|
| +E  E E E Q  E E   +E  E E E Q  E E   +E  E E E Q  E E   +E  E E E Q  E E
|------------------|------------------|------------------|--------------------||
|------------------|------------------|------------------|-------------------o||
|-----------2------|-----------2------|-----------2------|-----------2--------||
|-------4-5----5-4-|-(4)---4-5----5---|-------4-5----5-4-|-(4)---4-5----5-----||
|-(2)-2------------|-----2----------2-|-(2)-2------------|-----2----------4--o||
|------------------|------------------|------------------|--------------------||


   2nd Verse
    Q.         Q.         Q       +E    Q.         Q  Q
||------------------------------|------------------------|
||o-----------------------------|------------------------|
||--6----------7----------6-----|-(6)---6----------9--9--|
||--6----------7----------6-----|-(6)---6----------9--9--|
||o-4----------5----------4-----|-(4)---4----------7--7--|
||------------------------------|------------------------|
|
|      PM----|    PM----|   PM--------|    PM----|
|   E  S S S S E  S S S S E S S    S  S E  S S S S Q  Q
||------------------------------|------------------------|
||o-----------------------------|------------------------|
||------------------------------|------------------9--9--|
||--6----------7----------6-----|-------6----------9--9--|
||o-4--4-4-4-4-5--5-5-5-5-4-4-4-|--4--4-4--4-4-4-4-7--7--|
||------------------------------|------------------------|


  Q.         Q.         Q       +E    Q.         Q  Q
|-----------------------------|------------------------|
|-----------------------------|------------------------|
|-6----------7----------6-----|-(6)---6----------9--9--|
|-6----------7----------6-----|-(6)---6----------9--9--|
|-4----------5----------4-----|-(4)---4----------7--7--|
|-----------------------------|------------------------|
|
|    PM----|    PM----|   PM--------|    PM----|
| E  S S S S E  S S S S E S S    S  S E  S S S S Q  Q
|-----------------------------|------------------------|
|-----------------------------|------------------------|
|-----------------------------|------------------9--9--|
|-6----------7----------6-----|-------6----------9--9--|
|-4--4-4-4-4-5--5-5-5-5-4-4-4-|--4--4-4--4-4-4-4-7--7--|
|-----------------------------|------------------------|


  W                           +W                     4x
|---------------------------|------------------------||
|---------------------------|-----------------------o||
|-5-------------------------|-(5)--------------------||
|-5-------------------------|-(5)--------------------||
|-3-------------------------|-(3)-------------------o||
|---------------------------|------------------------||
|
|   PM----|   PM----|   PM--------|   PM----|
| E S S S S E S S S S E S S    S  S E S S S S Q  Q   4x
|---------------------------|------------------------||
|---------------------------|-----------------------o||
|---------------------------|------------------------||
|-5---------5---------5-----|-------5---------5--5---||
|-3-3-3-3-3-3-3-3-3-3-3-3-3-|--3--3-3-3-3-3-3-3--3--o||
|---------------------------|------------------------||


   Bridge
    W               +W                 +W                 +H..            E
||----------------|------------------|------------------|-------------------|
||o---------------|------------------|------------------|-------------------|
||----------------|------------------|------------------|-------------------|
||--6-------------|-(6)--------------|-(6)--------------|-(6)-------------4-|
||o-4-------------|-(4)--------------|-(4)--------------|-(4)-------------2-|
||----------------|------------------|------------------|-------------------|
|
|   Q  E E Q  E E   +E  E E E Q  E E   +E  E E E Q  E E   +E   E E E Q  E E
||----------------|------------------|------------------|-------------------|
||o---------------|------------------|------------------|-------------------|
||----------------|------------------|------------------|-------------------|
||-----6-7-6--4---|-------6-7-6--4---|-------6-7-6--4---|--------6-7-6--4---|
||o-4-----------4-|-(4)-4----------4-|-(4)-4----------4-|-(4)--4----------2-|
||----------------|------------------|------------------|-------------------|


  +W                 +W                 +W                 +W
|------------------|------------------|------------------|--------------------||
|------------------|------------------|------------------|-------------------o||
|------------------|------------------|------------------|--------------------||
|-(4)--------------|-(4)--------------|-(4)--------------|-(4)----------------||
|-(2)--------------|-(2)--------------|-(2)--------------|-(2)---------------o||
|------------------|------------------|------------------|--------------------||
|
| +E  E E E Q  E E   +E  E E E Q  E E   +E  E E E Q  E E   +E  E E E Q  E E
|------------------|------------------|------------------|--------------------||
|------------------|------------------|------------------|-------------------o||
|-----------2------|-----------2------|-----------2------|-----------2--------||
|-------4-5----5-4-|-(4)---4-5----5---|-------4-5----5-4-|-(4)---4-5----5-----||
|-(2)-2------------|-----2----------2-|-(2)-2------------|-----2----------4--o||
|------------------|------------------|------------------|--------------------||


   Chorus
    Q=140
    W               W                 W               W
||----------------|-----------------|---------------|--------------||
||o---------------|-----------------|---------------|-------------o||
||----------------|-----------------|---------------|--------------||
||--6-------------|-----------------|-4-------------|-2------------||
||o-4-------------|-2---------------|-2-------------|-0-----------o||
||----------------|-0---------------|---------------|--------------||
|
|   Q.   E Q  E E   Q.   E Q  S S E   Q.   E Q  E E   Q.   E H
||----------------|-----------------|---------------|--------------||
||o---------------|-----------------|---------------|-------------o||
||----------------|-4---------------|---------------|------4-6-----||
||-------6-7--6-7-|------7-6--7-6-4-|------4-6--4-6-|-7------------||
||o-4-------------|-----------------|---------------|-------------o||
||----------------|-----------------|-7-------------|--------------||


    H      Q  Q     Q.   E H          H      Q  Q     W
||----------------|-----------------|---------------|--------------||
||o---------------|-----------------|---------------|-------------o||
||--6-------------|-----------------|---------------|--------------||
||---------9--7---|-6---------------|-9------7--6---|--------------||
||o---------------|------7-4--------|---------------|-9-----------o||
||----------------|-----------------|---------------|--------------||
|
|   Q.   E Q  E E   Q.   E Q  S S E   Q.   E Q  E E   Q.   E H
||----------------|-----------------|---------------|--------------||
||o---------------|-----------------|---------------|-------------o||
||----------------|-4---------------|---------------|------4-6-----||
||-------6-7--6-7-|------7-6--7-6-4-|------4-6--4-6-|-7------------||
||o-4-------------|-----------------|---------------|-------------o||
||----------------|-----------------|-7-------------|--------------||


   Interlude
    Q=200
    Gtr II
    PM|   PM|   PM|     PM|   PM|      PM|   PM|   PM|     PM|   PM|
    E E E E E E E E   E E E E E E Q    E E E E E E E E   E E E E E E Q
||------------------|----------------|-----------------|----------------|
||o-----------------|----------------|-----------------|----------------|
||------------------|----------------|-----------------|----------------|
||------------------|----------------|-----------------|----------------|
||o-----3-----3-----|-4-----4-----4--|-----3-----3-----|-2-----2-----2--|
||--2-2---2-2---2-2-|---2-2---2-2----|-2-2---2-2---2-2-|---2-2---2-2----|


  PM|   PM|   PM|     PM|   PM|
  E E E E E E E E   E E E E E E Q    Q.   Q.   Q    +W
|-----------------|----------------|--------------|---------||
|-----------------|----------------|--------------|--------o||
|-----------------|----------------|--------------|---------||
|-----------------|----------------|--------------|---------||
|-----3-----3-----|-4-----4-----4--|-2----3----5--|-(5)----o||
|-2-2---2-2---2-2-|---2-2---2-2----|-0----1----3--|-(3)-----||


    E E E E E E E E   E E E E Q  Q    E E E E E E E E   E E E E Q  Q
||------------------|---------------|-----------------|---------------|
||o-----------------|---------------|-----------------|---------------|
||------------------|---------------|-----------------|---------------|
||------------------|---------------|-----------------|---------------|
||o-2-4-------------|---------5--5--|-5-4-------------|---------2--2--|
||--0-2-2-2-2-2-2-2-|-2-2-2-2-3--3--|-3-2-2-2-2-2-2-2-|-2-2-2-2-0--0--|


  E E E E E E E E   E E E E Q  Q    Q.   Q.   Q    +H.      Q    4x
|-----------------|---------------|--------------|---------------||
|-----------------|---------------|--------------|--------------o||
|-----------------|---------------|--------------|---------------||
|-----------------|---------------|--------------|---------------||
|-2-4-------------|---------5--5--|-2----3----5--|-(5)------7---o||
|-0-2-2-2-2-2-2-2-|-2-2-2-2-3--3--|-0----1----3--|-(3)------5----||


  H.=H
   W          +W
|-----------|--------|
|-----------|--------|
|-----------|--------|
|--9--------|-(9)----|
|--9--------|-(9)----|
|--7--------|-(7)----|


    Q=120
    Gtr I
    E S E S E E S E S E   E S E S E E S E S E   E S E S E E S E S E
||----------------------|---------------------|---------------------|
||o---------------------|---------------------|---------------------|
||--4-----4---4-----4---|-5-----5---5-----5---|-4-----4---4-----4---|
||------2---2-----2---2-|-----2---2-----2---2-|-----2---2-----2---2-|
||o---2---------2-------|---2---------2-------|---2---------2-------|
||----------------------|---------------------|---------------------|


  E S E S E E S E S E  5x     E S E S E E   S E   S E
|----------------------||-||--------------------------|
|---------------------o||-||o-------------------------|
|-2-----2---0-----0----||-||--4-----4---4---------4---|
|-----2---2-----2---2--||-||------2---2-------2-----2-|
|---2---------2-------o||-||o---2-----------2---------|
|----------------------||-||--------------------------|
|
| Gtr III
|                             ~
| W                    5x     H         S S E   E   E
|----------------------||-||--------------------------|
|---------------------o||-||o-3---------3h5p3-------3-|
|----------------------||-||--4---------4h5p4---5---4-|
|----------------------||-||--------------------7-----|
|---------------------o||-||o-------------------------|
|----------------------||-||--------------------------|


  E S E S E E   S E   S E
|--------------------------|
|--------------------------|
|-5-----5---5---------5----|
|-----2---2-------2-----2--|
|---2-----------2----------|
|--------------------------|
|
| H         S S E   E   E
|--------------------------|
|-5---------5-6-5---3------|
|-5---------5-7-5---4---5--|
|-----------------------7--|
|--------------------------|
|--------------------------|


  E S E S E E   S E   S E   E S E S E E S  E S E
|-------------------------|-----------------------||
|-------------------------|----------------------o||
|-4-----4---4---------4---|-2-----2---0------0----||
|-----2---2-------2-----2-|-----2---2------2---2--||
|---2-----------2---------|---2---------2--------o||
|-------------------------|-----------------------||
|
| ~                         ~
| H         S S E   E   E   H         E Q.
|-------------------------|-----------------------||
|-3---------3-5-3---------|----------------------o||
|-4---------4-5-4---5---4-|-5---------5-4---------||
|-------------------7---5-|-7---------7-5---------||
|-------------------------|----------------------o||
|-------------------------|-----------------------||


  E E E E E E E E   E E E E E E E E     E E E E E E E E   E E E E E E E E   5x
|-----------------|-----------------||------------------|-------------------||
|-----0-----------|-----0-----------||o-----0-----------|-----0------------o||
|---5---5---5---5-|---5---5---5---5-||----5---5---5---5-|---5---5---5---5---||
|-7-------7---7---|-6-------6---6---||--7-------7---7---|-6-------6---6-----||
|-----------------|-----------------||o-----------------|------------------o||
|-----------------|-----------------||------------------|-------------------||
|
| >
| W                 W                   W                 W                 5x
|-----------------|-----------------||------------------|-------------------||
|-----------------|-----------------||o-----------------|------------------o||
|-5---------------|-----------------||------------------|-------------------||
|-7---------------|-----------------||------------------|-------------------||
|-----------------|-----------------||o-----------------|------------------o||
|-----------------|-----------------||------------------|-------------------||


    Gtr II
                                     PM|
    W          E E H.        H.      E E   W
||-----------|-------------|-------------|-------||
||o----------|-------------|-------------|------o||
||-----------|-------------|-------------|-------||
||-----------|-------------|-------------|-------||
||o-7--------|-6-6---------|-7-------9-7-|-6----o||
||--5--------|-4-4---------|-5-------7-5-|-4-----||


 Guitar Solo (rhythm)
  Q=180
  Q.   Q.   Q    +E  Q.   Q  Q    Q.   Q.   Q    +E  Q.   Q  Q
|--------------|----------------|--------------|-----------------|
|--------------|----------------|--------------|-----------------|
|--------------|----------------|--------------|-----------------|
|-6----7----6--|-(6)-6----9--9--|-6----7----6--|-(6)-6----9--9---|
|-4----5----4--|-(4)-4----7--7--|-4----5----4--|-(4)-4----7--7---|
|-4----5----4--|-(4)-4----7--7--|-4----5----4--|-(4)-4----7--7---|


  Q.   Q.   Q    +E  Q.   Q  Q    Q.   Q.   Q
|--------------|----------------|--------------|
|--------------|----------------|--------------|
|--------------|----------------|--------------|
|-5----5----5--|-(5)-5----5--5--|-6----7----6--|
|-3----3----3--|-(3)-3----3--3--|-4----5----4--|
|-3----3----3--|-(3)-3----3--3--|-4----5----4--|


  +E  Q.   Q  Q    Q.   Q.   Q
|----------------|--------------|
|----------------|--------------|
|----------------|--------------|
|-(6)-6----9--9--|-6----7----6--|
|-(4)-4----7--7--|-4----5----4--|
|-(4)-4----7--7--|-4----5----4--|


  +E  Q.   Q  Q    Q.   Q.   Q
|----------------|--------------|
|----------------|--------------|
|----------------|--------------|
|-(6)-6----9--9--|-5----5----5--|
|-(4)-4----7--7--|-3----3----3--|
|-(4)-4----7--7--|-3----3----3--|


  +E  Q.   Q  Q      W          W
|----------------||-----------|------|
|----------------||o----------|------|
|----------------||-----------|------|
|-(5)-5----5--5--||--6--------|-9----|
|-(3)-3----3--3--||o-4--------|-7----|
|-(3)-3----3--3--||--4--------|-7----|


  W          H    H     4x
|----------|------------||
|----------|-----------o||
|----------|------------||
|-5--------|-4----7-----||
|-5--------|-4----7----o||
|----------|------------||


   Bridge
    W               +W                 +W                 +H..            E
||----------------|------------------|------------------|-------------------|
||o---------------|------------------|------------------|-------------------|
||----------------|------------------|------------------|-------------------|
||--6-------------|-(6)--------------|-(6)--------------|-(6)-------------4-|
||o-4-------------|-(4)--------------|-(4)--------------|-(4)-------------2-|
||----------------|------------------|------------------|-------------------|
|
|   Gtr III
|   Q  E E Q  E E   +E  E E E Q  E E   +E  E E E Q  E E   +E   E E E Q  E E
||----------------|------------------|------------------|-------------------|
||o---------------|------------------|------------------|-------------------|
||----------------|------------------|------------------|-------------------|
||-----6-7-6--4---|-------6-7-6--4---|-------6-7-6--4---|--------6-7-6--4---|
||o-4-----------4-|-(4)-4----------4-|-(4)-4----------4-|-(4)--4----------2-|
||----------------|------------------|------------------|-------------------|


   W                 +W                 +W                 +W
|------------------|------------------|------------------|--------------------||
|------------------|------------------|------------------|-------------------o||
|------------------|------------------|------------------|--------------------||
|--4---------------|-(4)--------------|-(4)--------------|-(4)----------------||
|--2---------------|-(2)--------------|-(2)--------------|-(2)---------------o||
|------------------|------------------|------------------|--------------------||
|
| +E  E E E Q  E E   +E  E E E Q  E E   +E  E E E Q  E E   +E  E E E Q  E E
|------------------|------------------|------------------|--------------------||
|------------------|------------------|------------------|-------------------o||
|-----------2------|-----------2------|-----------2------|-----------2--------||
|-------4-5----5-4-|-(4)---4-5----5---|-------4-5----5-4-|-(4)---4-5----5-----||
|-(2)-2------------|-----2----------2-|-(2)-2------------|-----2----------4--o||
|------------------|------------------|------------------|--------------------||


   Chorus - Outro
    W               W                 W               W
||----------------|-----------------|---------------|--------------||
||o---------------|-----------------|---------------|-------------o||
||--6-------------|-----------------|-4-------------|-2------------||
||--6-------------|-2---------------|-4-------------|-2------------||
||o-4-------------|-2---------------|-2-------------|-0-----------o||
||----------------|-0---------------|---------------|--------------||
|
|   Q.   E Q  E E   Q.   E Q  S S E   Q.   E Q  E E   Q.   E H
||----------------|-----------------|---------------|--------------||
||o---------------|-----------------|---------------|-------------o||
||----------------|-4---------------|---------------|------4-6-----||
||-------6-7--6-7-|------7-6--7-6-4-|------4-6--4-6-|-7------------||
||o-4-------------|-----------------|---------------|-------------o||
||----------------|-----------------|-7-------------|--------------||


    H      Q  Q     Q.   E H          H      Q  Q     W
||----------------|-----------------|---------------|--------------||
||o---------------|-----------------|---------------|-------------o||
||--6-------------|-----------------|---------------|--------------||
||---------9--7---|-6---------------|-9------7--6---|--------------||
||o---------------|------7-4--------|---------------|-9-----------o||
||----------------|-----------------|---------------|--------------||
|
|   Q.   E Q  E E   Q.   E Q  S S E   Q.   E Q  E E   Q.   E H
||----------------|-----------------|---------------|--------------||
||o---------------|-----------------|---------------|-------------o||
||----------------|-4---------------|---------------|------4-6-----||
||-------6-7--6-7-|------7-6--7-6-4-|------4-6--4-6-|-7------------||
||o-4-------------|-----------------|---------------|-------------o||
||----------------|-----------------|-7-------------|--------------||




--------------------------------------------------------------------------------


Duration Legend
---------------
W - whole; H - half; Q - quarter; E - 8th; S - 16th; T - 32nd; X - 64th; a - acciaccatura
+ - note tied to previous; . - note dotted; .. - note double dotted
Uncapitalized letters represent notes that are staccato (1/2 duration)
Irregular groupings are notated above the duration line
Duration letters will always appear directly above the note/fret number it represents the
duration for.  Duration letters with no fret number below them represent rests.  Multi-
bar rests are notated in the form Wxn, where n is the number of bars to rest for.  Low
melody durations appear below the staff

Tablature Legend
----------------
 h   - hammer-on
 p   - pull-off
 b   - bend
 pb  - pre-bend
 r   - bend release (if no number after the r, then release immediately)
 /\  - slide into or out of (from/to "nowhere")
 s   - legato slide
 S   - shift slide
 - natural harmonic
[n]  - artificial harmonic
n(n) - tapped harmonic
 ~   - vibrato
 tr  - trill
 T   - tap
 TP  - trem. picking
 PM  - palm muting
\n/  - tremolo bar dip; n = amount to dip
 \n  - tremolo bar down
 n/  - tremolo bar up
/n\  - tremolo bar inverted dip
 =   - hold bend; also acts as connecting device for hammers/pulls
 <> - volume swell (louder/softer)
 x   - on rhythm slash represents muted slash
 o   - on rhythm slash represents single note slash

Misc Legend
-----------
 |  - bar
||  - double bar
||o - repeat start
o|| - repeat end
*|  - double bar (ending)
 :  - bar (freetime)
 $  - Segno
 &  - Coda
Tempo markers -  = BPM(8/16=s8/s16), where s8 = swing 8ths, s16 = swing 16ths


Добавлено: 01.09.2013
Другие материалы по этой песне:

Страница создана 12.03.2012
http://primanota.ru/iced-earth/burnt-offerings-chords.htm
Привет, Гость.
Предлагаем пройти революционный курс по гитаре.
Подарок от PrimaNota.Ru, забирай!