PrimaNota.ru - самый крупный в мире бесплатный архив песенных текстов, аккордов, табулатур и нот


Iced Earth - Attila - текст песни, таба, видео

Регистрация Запомнить меня
Войти через:  Facebook Google Twitter Vk Yandex Mail.ru

Iced Earth - Attila - текст песни, таба, видео

Печатать
Просмотров: 94
As recorded by Iced Earth
(From the 2004 Album THE GLORIOUS BURDEN)

Transcribed by Russ Elton and Patrick Kane
	

Words and Music by Jon Schaffer

E5/B
x 2 2 x x x
	
D5/A
x 0 0 x x x
	
D5
x 5 7 7 x x
	
E5
x 7 9 9 x x

F#5/C#
x 4 4 x x x
	
G5/D
x 5 5 x x x
	
A5/E
x 7 7 x x x
	
B5/F#
x 9 9 x x x

Gtr I (Eb Ab Db Gb Bb Eb) - 'Rhythm Guitar'
Gtr II (Eb Ab Db Gb Bb Eb) - 'Lead Guitar'
Gtr III (Eb Ab Db Gb Bb Eb) - 'Harmony Guitar'
Gtr IV (Eb Ab Db Gb Bb Eb) - 'Harmony Guitar #2'

   Intro
    Moderate Rock Q=118
    E5  E5 D5 E5            N.C.
   4/4
    Gtr I
         PM|                 PM---|      PM|
     q   E  E  H       +Q    E  E  E  E  E  E
||------------------|-------------------------|
||o-----------------|-------------------------|
||------------------|-------------------------|
||---2---2--0--2----|--(2)--------------------|
||o--2---2--0--2----|--(2)--------------------|
||------------------|--------0--2--3--5--3--2-|
|
|   Gtr II
|        PM|                 PM---|      PM|
|    q   E  E  H       +Q    E  E  E  E  E  E
||------------------|-------------------------|
||o-----------------|-------------------------|
||------------------|-------------------------|
||---9---9--7--9----|--(9)------------7-------|
||o--7---7--5--7----|--(7)---7--9-10----10--9-|
||------------------|-------------------------|
|
|   Gtr III
|    q   E  E  H       +Q    E  E  E  E  E  E
||------------------|----------------17-------|
||o-17--17-15-17----|-(17)--17-19-20----20-19-|
||------------------|-------------------------|
||------------------|-------------------------|
||o-----------------|-------------------------|
||------------------|-------------------------|


         PM
   Q.    E  H       +Q    E  E  E  E  Q
|----------------|-------------------------||
|----------------|------------------------o||
|----------------|-------------------------||
|----------------|-------------------------||
|--3-------------|------------------------o||
|--------1--1----|--(1)---1--3--5--3--1----||
|
|        PM
|  Q.    E  H       +Q    E  E  E  E  Q
|----------------|-------------------------||
|----------------|------------------------o||
|----------------|-------------------------||
|-10-------------|--------------7----------||
|--------8--8----|--(8)---8-10----10--8---o||
|----------------|-------------------------||
|
|  Q.    E  H       +Q    E  E  E  E  Q
|-20-------------|-------------17----------||
|-------18-18----|-(18)--18-20----20-18---o||
|----------------|-------------------------||
|----------------|-------------------------||
|----------------|------------------------o||
|----------------|-------------------------||


    E5/B   D5/E5/B
    Gtr I
     q   E  E  H         +Q     E  E  E  E  E  E    Q.       E  H
     |   |  |  |          |     |  |  |  |  |  |    |        |  |
     /   /  /  /          /     o  o  o  o  o  o    o        o  /

    Gtr II
         PM|                    PM---|      PM|              PM
     q   E  E  H         +Q     E  E  E  E  E  E    Q.       E  H
||--------------------|--------------------------|-------------------------|
||o-------------------|--------------------------|-------------------------|
||--------------------|--------------------------|-------------------------|
||---9---9--7--9------|--(9)-------------7-------|-10----------------------|
||o--7---7--5--7------|--(7)----7--9-10----10--9-|-----------8--8----------|
||--------------------|--------------------------|-------------------------|
|
|   Gtr III
|    q   E  E  H         +Q     E  E  E  E  E  E    Q.       E  H
||--------------------|-----------------17-------|-20----------------------|
||o-17--17-15-17------|-(17)---17-19-20----20-19-|----------18-18----------|
||--------------------|--------------------------|-------------------------|
||--------------------|--------------------------|-------------------------|
||o-------------------|--------------------------|-------------------------|
||--------------------|--------------------------|-------------------------|
|
|   Gtr IV
|    q   E  E  Q   Q     +E  E  E  E  E  E  E  E    E  E  E  E  E  E  E  E
||--------------------|--------------------------|-------------------------|
||o--------12---------|--------10----10----------|----------10-------10-12-|
||---9---9-----9--12--|-(12)-9-----9----12--9--9-|--9--9-12----10-10-------|
||--------------------|--------------------------|-------------------------|
||o-------------------|--------------------------|-------------------------|
||--------------------|--------------------------|-------------------------|


                              E5/B   D5/E5/B
   +Q    E  E  E  E  Q         q   E  E  H         +W
    |    |  |  |  |  |         |   |  |  |          |
    /    o  o  o  o  o         /   /  /  /          /

                                   PM|
   +Q    E  E  E  E  Q         q   E  E  H         +W
|--------------------------||-------------------|---------||
|-------------------------o||-------------------|---------||
|--------------------------||-------------------|---------||
|--------------7-----------||--9---9--7--9------|--(9)----||
|--(8)---8-10----10--8----o||--7---7--5--7------|--(7)----||
|--------------------------||-------------------|---------||
|
|  +Q    E  E  E  E  Q         q   E  E  H         +W
|-------------17-----------||-------------------|---------||
|-(18)--18-20----20-18----o||-17--17-15-17------|-(17)----||
|--------------------------||-------------------|---------||
|--------------------------||-------------------|---------||
|-------------------------o||-------------------|---------||
|--------------------------||-------------------|---------||
|
|   Q    E  E  E  E  E  E      q   E  E  Q   Q     +W
|--------------------------||-------------------|---------||
|-------------------------o||--------12---------|---------||
|--10---12-10-10-10-10-12--||--9---9-----9--12--|-(12)----||
|--------------------------||-------------------|---------||
|-------------------------o||-------------------|---------||
|--------------------------||-------------------|---------||


   Verse I
    Fast Rock Q=168
    E5/B N.C.                            B5/A5/E
    Gtr I
         PM--------|       PM------|   PM      PM
    Q  E E S S E S S E   S S E S S E S S  E  E E
||---------------------|-------------------------|
||o--------------------|-------------------------|
||---------------------|-------------------------|
||--2--2---------------|------------------9--7---|
||o-2--2---------------|------------------9--7---|
||-------0-0-0-0-0-0-0-|-0-0-0-0-0-0-0-0-------0-|
|
|   Gtr II
|        PM----------------------------|       PM
|   Q  E E S S E S S E   S S E S S E S S  E  E E
||---------------------|-------------------------|
||o--------------------|-------------------------|
||---------------------|-------------------------|
||--9--9---------------|-----------------16-14---|
||o-7--7-7-7-7-7-7-7-7-|-7-7-7-7-7-7-7-7-14-12-7-|
||---------------------|-------------------------|


  G5/D   N.C.                                           A5/B5/F#
          PM-----------------------------------------|        PM
   Q   E  E  S  S  E  S  S  E    S  S  E  S  S  E  S  S  E  E E
|-----------------------------|----------------------------------|
|-----------------------------|----------------------------------|
|-----------------------------|----------------------------------|
|--5---5----------------------|--------------------------7--9----|
|--5---5----------------------|--------------------------7--9----|
|---------3--3--3--3--3--3--3-|--3--3--3--3--3--3--3--3-------0--|
|
|         PM-----------------------------------------|        PM
|  Q   E  E  S  S  E  S  S  E    S  S  E  S  S  E  S  S  E  E E
|-----------------------------|----------------------------------|
|-----------------------------|----------------------------------|
|-----------------------------|----------------------------------|
|-12--12----------------------|-------------------------14-16----|
|-10--10-10-10-10-10-10-10-10-|-10-10-10-10-10-10-10-10-12-14-7--|
|-----------------------------|----------------------------------|


  F5/C                                   G5/F5/C
         PM------------------------|           PM
   Q   E E S S E S S E   S S E S S E S S  E  E E
|----------------------|-------------------------|
|----------------------|-------------------------|
|----------------------|-------------------------|
|--3---3---------------|------------------5--3---|
|--3---3---------------|------------------5--3---|
|--------1-1-1-1-1-1-1-|-1-1-1-1-1-1-1-1-------0-|
|
|        PM----------------------------|       PM
|  Q   E E S S E S S E   S S E S S E S S  E  E E
|----------------------|-------------------------|
|----------------------|-------------------------|
|----------------------|-------------------------|
|-10--10---------------|-----------------12-10---|
|--8---8-8-8-8-8-8-8-8-|-8-8-8-8-8-8-8-8-10--8-7-|
|----------------------|-------------------------|


  E5/B                            D5         F5
         PM---------------------|    PM----|
  Q  +S  E S S E S S E.   S S S S Q  S S S S  Q    4x
|-----------------------|--------------------------||
|-----------------------|-------------------------o||
|-----------------------|--------------------------||
|-2--(2)----------------|---------7----------10----||
|-2--(2)----------------|-5-5-5-5-5--8-8-8-8--8---o||
|--------0-0-0-0-0-0-0--|--------------------------||
|
|        PM---------------------|    PM----|
| Q  +S  E S S E S S E.   S S S S Q  S S S S  Q    4x
|-----------------------|--------------------------||
|-----------------------|-------------------------o||
|-----------------------|--------------------------||
|-9--(9)----------------|---------7----------10----||
|-7--(7)-7-7-7-7-7-7-7--|-5-5-5-5-5--8-8-8-8--8---o||
|-----------------------|--------------------------||


 Chorus Riff
  E5/B
   W
|----------------------------------------|
|----------------------------------------|
|----------------------------------------|
|--2-------------------------------------|
|--2-------------------------------------|
|----------------------------------------|
|
|     PM------|      PM------|      PM----
|  E  S  S  S  S  E  S  S  S  S  E  S  S
|----------------------------------------|
|----------------------------------------|
|----------------------------------------|
|-14-14-14-14-14-19-14-14-14-14-17-14-14-|
|----------------------------------------|
|----------------------------------------|


                        A5/E                G5/D
  +H                     H                   W
|-----------------------------------------|----------------------------------------|
|-----------------------------------------|----------------------------------------|
|-----------------------------------------|----------------------------------------|
|-(2)--------------------7----------------|--5-------------------------------------|
|-(2)--------------------7----------------|--5-------------------------------------|
|-----------------------------------------|----------------------------------------|
|
|-----|      PM------|      PM|      PM|        PM------|      PM------|      PM|
|  S   S  E  S  S  S  S  E  S  S  E  S  S    E  S  S  S  S  E  S  S  S  S  E  S  S
|-----------------------------------------|----------------------------------------|
|-----------------------------------------|----------------------------------------|
|-----------------------------------------|----------------------------------------|
|-14--14-16-14-14-14-14-17-14-14-19-14-14-|-14-14-14-14-14-19-14-14-14-14-17-14-14-|
|-----------------------------------------|----------------------------------------|
|-----------------------------------------|----------------------------------------|


                                 A5/E
  +H.                             Q
|-----------------------------------------|
|-----------------------------------------|
|-----------------------------------------|
|-(5)-----------------------------7-------|
|-(5)-----------------------------7-------|
|-----------------------------------------|
|
|  PM-|      PM------|      PM|      PM|
|  S   S  E  S  S  S  S  E  S  S  E  S  S
|-----------------------------------------|
|-----------------------------------------|
|-----------------------------------------|
|-14--14-16-14-14-14-14-17-14-14-19-14-14-|
|-----------------------------------------|
|-----------------------------------------|


  G5/D                                     D/F#
   W                                        W
|----------------------------------------|----------------------------------------|
|----------------------------------------|----------------------------------------|
|----------------------------------------|----------------------------------------|
|--5-------------------------------------|----------------------------------------|
|--5-------------------------------------|--5-------------------------------------|
|----------------------------------------|--2-------------------------------------|
|
|     PM------|      PM------|      PM|        PM------|      PM------|      PM|
|  E  S  S  S  S  E  S  S  S  S  E  S  S    E  S  S  S  S  E  S  S  S  S  E  S  S
|----------------------------------------|----------------------------------------|
|----------------------------------------|----------------------------------------|
|----------------------------------------|----------------------------------------|
|-17-14-14-14-14-16-14-14-14-14-14-14-14-|-17-14-14-14-14-16-14-14-14-14-14-14-14-|
|----------------------------------------|----------------------------------------|
|----------------------------------------|----------------------------------------|


  E5/B
   W
|----------------------------------------|
|----------------------------------------|
|----------------------------------------|
|--2-------------------------------------|
|--2-------------------------------------|
|----------------------------------------|
|
|     PM------|      PM------|      PM----
|  E  S  S  S  S  E  S  S  S  S  E  S  S
|----------------------------------------|
|----------------------------------------|
|----------------------------------------|
|-14-14-14-14-14-19-14-14-14-14-17-14-14-|
|----------------------------------------|
|----------------------------------------|


  +W
|-----------------------------------------|
|-----------------------------------------|
|-----------------------------------------|
|-(2)-------------------------------------|
|-(2)-------------------------------------|
|-----------------------------------------|
|
|-----|      PM------|      PM|      PM|
|  S   S  E  S  S  S  S  E  S  S  E  S  S
|-----------------------------------------|
|-----------------------------------------|
|-----------------------------------------|
|-14--14-16-14-14-14-14-17-14-14-19-14-14-|
|-----------------------------------------|
|-----------------------------------------|


   Verse II
    E5/B N.C.                            B5/A5/E
         PM--------|       PM------|   PM      PM
    Q  E E S S E S S E   S S E S S E S S  E  E E
||---------------------|-------------------------|
||o--------------------|-------------------------|
||---------------------|-------------------------|
||--2--2---------------|------------------9--7---|
||o-2--2---------------|------------------9--7---|
||-------0-0-0-0-0-0-0-|-0-0-0-0-0-0-0-0-------0-|
|
|        PM----------------------------|       PM
|   Q  E E S S E S S E   S S E S S E S S  E  E E
||---------------------|-------------------------|
||o--------------------|-------------------------|
||---------------------|-------------------------|
||--9--9---------------|-----------------16-14---|
||o-7--7-7-7-7-7-7-7-7-|-7-7-7-7-7-7-7-7-14-12-7-|
||---------------------|-------------------------|


  G5/D   N.C.                                           A5/B5/F#
   Q   E  E  S  S  E  S  S  E    S  S  E  S  S  E  S  S  E  E E
|-----------------------------|----------------------------------|
|-----------------------------|----------------------------------|
|-----------------------------|----------------------------------|
|--5---5----------------------|--------------------------7--9----|
|--5---5----------------------|--------------------------7--9----|
|---------3--3--3--3--3--3--3-|--3--3--3--3--3--3--3--3-------0--|
|
|         PM-----------------------------------------|        PM
|  Q   E  E  S  S  E  S  S  E    S  S  E  S  S  E  S  S  E  E E
|-----------------------------|----------------------------------|
|-----------------------------|----------------------------------|
|-----------------------------|----------------------------------|
|-12--12----------------------|-------------------------14-16----|
|-10--10-10-10-10-10-10-10-10-|-10-10-10-10-10-10-10-10-12-14-7--|
|-----------------------------|----------------------------------|


  F5/C   N.C.                            G5/F5/C
         PM------------------------|           PM
   Q   E E S S E S S E   S S E S S E S S  E  E E
|----------------------|-------------------------|
|----------------------|-------------------------|
|----------------------|-------------------------|
|--3---3---------------|------------------5--3---|
|--3---3---------------|------------------5--3---|
|--------1-1-1-1-1-1-1-|-1-1-1-1-1-1-1-1-------0-|
|
|                                              PM
|  Q   E E S S E S S E   S S E S S E S S  E  E E
|----------------------|-------------------------|
|----------------------|-------------------------|
|----------------------|-------------------------|
|-10--10---------------|-----------------12-10---|
|--8---8-8-8-8-8-8-8-8-|-8-8-8-8-8-8-8-8-10--8-7-|
|----------------------|-------------------------|


  E5/B   N.C.                     D5 N.C.    F5
         PM---------------------|    PM----|
  Q  +S  E S S E S S E.   S S S S Q  S S S S  Q    3x
|-----------------------|--------------------------||
|-----------------------|-------------------------o||
|-----------------------|--------------------------||
|-2--(2)----------------|---------7----------10----||
|-2--(2)----------------|-5-5-5-5-5--8-8-8-8--8---o||
|--------0-0-0-0-0-0-0--|--------------------------||
|
|                         PM----|    PM----|
| Q  +S  E S S E S S E.   S S S S Q  S S S S  Q    3x
|-----------------------|--------------------------||
|-----------------------|-------------------------o||
|-----------------------|--------------------------||
|-9--(9)----------------|---------7----------10----||
|-7--(7)-7-7-7-7-7-7-7--|-5-5-5-5-5--8-8-8-8--8---o||
|-----------------------|--------------------------||


   Chorus
    E5/B
     W
||-----------------------------------------|
||o----------------------------------------|
||-----------------------------------------|
||---2-------------------------------------|
||o--2-------------------------------------|
||-----------------------------------------|
|
|       PM------|      PM------|      PM----
|    E  S  S  S  S  E  S  S  S  S  E  S  S
||-----------------------------------------|
||o----------------------------------------|
||-----------------------------------------|
||--14-14-14-14-14-19-14-14-14-14-17-14-14-|
||o----------------------------------------|
||-----------------------------------------|


                        A5/E                G5/D
  +H                     H                   W
|-----------------------------------------|------------------------------------------|
|-----------------------------------------|------------------------------------------|
|-----------------------------------------|------------------------------------------|
|-(2)--------------------7----------------|--5---------------------------------------|
|-(2)--------------------7----------------|--5---------------------------------------|
|-----------------------------------------|------------------------------------------|
|
|-----|      PM------|      PM|      PM|        PM------|      PM------|      PM|
|  S   S  E  S  S  S  S  E  S  S  E  S  S    E  S  S  S  S  E  S  S  S  S  E  S  S
|-----------------------------------------|------------------------------------------|
|-----------------------------------------|------------------------------------------|
|-----------------------------------------|------------------------------------------|
|-14--14-16-14-14-14-14-17-14-14-19-14-14-|-14-14-14-14-14-19-14-14-14-14-17-14-14---|
|-----------------------------------------|------------------------------------------|
|-----------------------------------------|------------------------------------------|


                                 A5/E
  +H.                             Q
|-----------------------------------------|
|-----------------------------------------|
|-----------------------------------------|
|-(5)-----------------------------7-------|
|-(5)-----------------------------7-------|
|-----------------------------------------|
|
|  PM-|      PM------|      PM|      PM|
|  S   S  E  S  S  S  S  E  S  S  E  S  S
|-----------------------------------------|
|-----------------------------------------|
|-----------------------------------------|
|-14--14-16-14-14-14-14-17-14-14-19-14-14-|
|-----------------------------------------|
|-----------------------------------------|


  G5/D                                     D/F#
   W                                        W
|----------------------------------------|----------------------------------------|
|----------------------------------------|----------------------------------------|
|----------------------------------------|----------------------------------------|
|--5-------------------------------------|----------------------------------------|
|--5-------------------------------------|--5-------------------------------------|
|----------------------------------------|--2-------------------------------------|
|
|     PM------|      PM------|      PM|        PM------|      PM------|      PM|
|  E  S  S  S  S  E  S  S  S  S  E  S  S    E  S  S  S  S  E  S  S  S  S  E  S  S
|----------------------------------------|----------------------------------------|
|----------------------------------------|----------------------------------------|
|----------------------------------------|----------------------------------------|
|-17-14-14-14-14-16-14-14-14-14-14-14-14-|-17-14-14-14-14-16-14-14-14-14-14-14-14-|
|----------------------------------------|----------------------------------------|
|----------------------------------------|----------------------------------------|


  E5/B
   W
|----------------------------------------|
|----------------------------------------|
|----------------------------------------|
|--2-------------------------------------|
|--2-------------------------------------|
|----------------------------------------|
|
|     PM------|      PM------|      PM----
|  E  S  S  S  S  E  S  S  S  S  E  S  S
|----------------------------------------|
|----------------------------------------|
|----------------------------------------|
|-14-14-14-14-14-19-14-14-14-14-17-14-14-|
|----------------------------------------|
|----------------------------------------|


  +W
|------------------------------------------||
|-----------------------------------------o||
|------------------------------------------||
|-(2)--------------------------------------||
|-(2)-------------------------------------o||
|------------------------------------------||
|
|-----|      PM------|      PM|      PM|
|  S   S  E  S  S  S  S  E  S  S  E  S  S
|------------------------------------------||
|-----------------------------------------o||
|------------------------------------------||
|-14--14-16-14-14-14-14-17-14-14-19-14-14--||
|-----------------------------------------o||
|------------------------------------------||


 Interlude
  Em         Am          G
  Gtr I
     PM----|     PM----|    PM---
  E  S S S S  E  S S S S  E S S
|-------------------------------|
|-------------------------------|
|-------------------------------|
|-------------------------------|
|-7--7-7-7-7-12--7-7-7-7-10-7-7-|
|-------------------------------|
|
| Gtrs II, III
| Q.          Q.          Q
|-------------------------------|
|-------------------------------|
|-------------------------------|
|-5----------10-----------9-----|
|-7----------12----------10-----|
|-------------------------------|


         F#m        G      Am       Em         Am          G
 ------|    PM----|    PM|    PM|      PM----|     PM----|    PM|
    S  S E  S S S S  E S S  E S S   E  S S S S  E  S S S S  E S S
|---------------------------------|-------------------------------|
|---------------------------------|-------------------------------|
|---------------------------------|-------------------------------|
|---------------------------------|-------------------------------|
|---7--7-9--7-7-7-7-10-7-7-12-7-7-|-7--7-7-7-7-12--7-7-7-7-10-7-7-|
|---------------------------------|-------------------------------|
|
|  +E    Q.          Q      Q       Q.          Q.          Q
|---------------------------------|-------------------------------|
|---------------------------------|-------------------------------|
|---------------------------------|-------------------------------|
|--(9)---7-----------9-----10-----|-5----------10-----------9-----|
|-(10)---9----------10-----12-----|-7----------12----------10-----|
|---------------------------------|-------------------------------|


         F#m        G      Am
    PM-|    PM----|    PM|    PM|
    S  S E  S S S S  E S S  E S S
|---------------------------------|
|---------------------------------|
|---------------------------------|
|---------------------------------|
|---7--7-9--7-7-7-7-10-7-7-12-7-7-|
|---------------------------------|
|
|  +E    Q.          Q      Q
|---------------------------------|
|---------------------------------|
|---------------------------------|
|--(9)---7-----------9-----10-----|
|-(10)---9----------10-----12-----|
|---------------------------------|


  G           F#m        Em      G           F#m        Em
      PM----|    PM----|   PM|       PM----|    PM----|   PM|
   E  S S S S E  S S S S E S S    E  S S S S E  S S S S E S S
|------------------------------|------------------------------|
|------------------------------|------------------------------|
|------------------------------|------------------------------|
|------------------------------|------------------------------|
|-10--7-7-7-7-9--7-7-7-7-7-7-7-|-10--7-7-7-7-9--7-7-7-7-7-7-7-|
|------------------------------|------------------------------|
|
|  Q.         Q.         Q        Q.         Q.         Q
|------------------------------|------------------------------|
|------------------------------|------------------------------|
|------------------------------|------------------------------|
|--9----------7----------5-----|--9----------7----------5-----|
|-10----------9----------7-----|-10----------9----------7-----|
|------------------------------|------------------------------|


  Em         Am          G               F#m        G      Am
     PM----|     PM----|    PM---------|    PM----|    PM|    PM|
  E  S S S S  E  S S S S  E S S     S  S E  S S S S  E S S  E S S
|-------------------------------|---------------------------------||
|-------------------------------|---------------------------------||
|-------------------------------|---------------------------------||
|-------------------------------|---------------------------------||
|-7--7-7-7-7-12--7-7-7-7-10-7-7-|---7--7-9--7-7-7-7-10-7-7-12-7-7-||
|-------------------------------|---------------------------------||
|
| Q.          Q.          Q        +E    Q.          Q      Q
|-------------------------------|---------------------------------||
|-------------------------------|---------------------------------||
|-------------------------------|---------------------------------||
|-5----------10-----------9-----|--(9)---7-----------9-----10-----||
|-7----------12----------10-----|-(10)---9----------10-----12-----||
|-------------------------------|---------------------------------||


  F#m        Bm          A
     PM----|     PM----|    PM---
  E  S S S S  E  S S S S  E S S
|-------------------------------|
|-------------------------------|
|-------------------------------|
|-------------------------------|
|-9--9-9-9-9-14--9-9-9-9-12-9-9-|
|-------------------------------|
|
| Q.          Q.          Q
|-------------------------------|
|-------------------------------|
|-------------------------------|
|-7----------12----------11-----|
|-9----------14----------12-----|
|-------------------------------|


         G#m         A      Bm       F#m        Bm          A
 ------|     PM----|    PM|    PM|      PM----|     PM----|    PM|
    S  S  E  S S S S  E S S  E S S   E  S S S S  E  S S S S  E S S
|----------------------------------|-------------------------------|
|----------------------------------|-------------------------------|
|----------------------------------|-------------------------------|
|----------------------------------|-------------------------------|
|---9--9-11--9-9-9-9-12-9-9-14-9-9-|-9--9-9-9-9-14--9-9-9-9-12-9-9-|
|----------------------------------|-------------------------------|
|
|  +E     Q.          Q      Q       Q.          Q.          Q
|----------------------------------|-------------------------------|
|----------------------------------|-------------------------------|
|----------------------------------|-------------------------------|
|-(11)----9----------11-----12-----|-7----------12----------11-----|
|-(12)---11----------12-----14-----|-9----------14----------12-----|
|----------------------------------|-------------------------------|


         G#m         A      Bm
    PM-|     PM----|    PM|    PM|
    S  S  E  S S S S  E S S  E S S
|----------------------------------|
|----------------------------------|
|----------------------------------|
|----------------------------------|
|---9--9-11--9-9-9-9-12-9-9-14-9-9-|
|----------------------------------|
|
|  +E     Q.          Q      Q
|----------------------------------|
|----------------------------------|
|----------------------------------|
|-(11)----9----------11-----12-----|
|-(12)---11----------12-----14-----|
|----------------------------------|


  A           G#m         F#m     A           G#m         F#m
      PM----|     PM----|   PM|       PM----|     PM----|   PM|
   E  S S S S  E  S S S S E S S    E  S S S S  E  S S S S E S S
|-------------------------------|-------------------------------|
|-------------------------------|-------------------------------|
|-------------------------------|-------------------------------|
|-------------------------------|-------------------------------|
|-12--9-9-9-9-11--9-9-9-9-9-9-9-|-12--9-9-9-9-11--9-9-9-9-9-9-9-|
|-------------------------------|-------------------------------|
|
|  Q.          Q.         Q        Q.          Q.         Q
|-------------------------------|-------------------------------|
|-------------------------------|-------------------------------|
|-------------------------------|-------------------------------|
|-11-----------9----------7-----|-11-----------9----------7-----|
|-12----------11----------9-----|-12----------11----------9-----|
|-------------------------------|-------------------------------|


  F#m        Bm          A               G#m         A      Bm
     PM----|     PM----|    PM---------|     PM----|    PM|    PM|
  E  S S S S  E  S S S S  E S S     S  S  E  S S S S  E S S  E S S
|-------------------------------|----------------------------------||
|-------------------------------|----------------------------------||
|-------------------------------|----------------------------------||
|-------------------------------|----------------------------------||
|-9--9-9-9-9-14--9-9-9-9-12-9-9-|---9--9-11--9-9-9-9-12-9-9-14-9-9-||
|-------------------------------|----------------------------------||
|
| Q.          Q.          Q        +E     Q.          Q      Q
|-------------------------------|----------------------------------||
|-------------------------------|----------------------------------||
|-------------------------------|----------------------------------||
|-7----------12----------11-----|-(11)----9----------11-----12-----||
|-9----------14----------12-----|-(12)---11----------12-----14-----||
|-------------------------------|----------------------------------||


  G#m             C#m             B
       PM------|       PM------|      PM----
   E   S  S  S  S  E   S  S  S  S  E  S  S
|------------------------------------------|
|------------------------------------------|
|------------------------------------------|
|------------------------------------------|
|-11--11-11-11-11-16--11-11-11-11-14-11-11-|
|------------------------------------------|
|
|  Q.              Q.              Q
|------------------------------------------|
|------------------------------------------|
|--4---------------9---------------8-------|
|--6--------------11---------------9-------|
|------------------------------------------|
|------------------------------------------|


         Bbm             B        C#m        G#m             C#m             B
 -----|       PM------|      PM|      PM|         PM------|       PM------|      PM|
   S   S  E   S  S  S  S  E  S  S  E  S  S    E   S  S  S  S  E   S  S  S  S  E  S  S
|------------------------------------------|------------------------------------------|
|------------------------------------------|------------------------------------------|
|------------------------------------------|------------------------------------------|
|------------------------------------------|------------------------------------------|
|-11--11-13--11-11-11-11-14-11-11-16-11-11-|-11--11-11-11-11-16--11-11-11-11-14-11-11-|
|------------------------------------------|------------------------------------------|
|
| +E      Q.              Q        Q          Q.              Q.              Q
|------------------------------------------|------------------------------------------|
|------------------------------------------|------------------------------------------|
|-(8)-----6---------------8--------9-------|--4---------------9---------------8-------|
|-(9)-----8---------------9-------11-------|--6--------------11---------------9-------|
|------------------------------------------|------------------------------------------|
|------------------------------------------|------------------------------------------|


         Bbm             B        C#m
   PM-|       PM------|      PM|      PM|
   S   S  E   S  S  S  S  E  S  S  E  S  S
|------------------------------------------|
|------------------------------------------|
|------------------------------------------|
|------------------------------------------|
|-11--11-13--11-11-11-11-14-11-11-16-11-11-|
|------------------------------------------|
|
| +E      Q.              Q        Q
|------------------------------------------|
|------------------------------------------|
|-(8)-----6---------------8--------9-------|
|-(9)-----8---------------9-------11-------|
|------------------------------------------|
|------------------------------------------|


  B               Bbm             G#m        B               Bbm             G#m
       PM------|       PM------|      PM|         PM------|       PM------|      PM|
   E   S  S  S  S  E   S  S  S  S  E  S  S    E   S  S  S  S  E   S  S  S  S  E  S  S
|------------------------------------------|------------------------------------------|
|------------------------------------------|------------------------------------------|
|------------------------------------------|------------------------------------------|
|------------------------------------------|------------------------------------------|
|-14--11-11-11-11-13--11-11-11-11-11-11-11-|-14--11-11-11-11-13--11-11-11-11-11-11-11-|
|------------------------------------------|------------------------------------------|
|
|  Q.              Q.              Q          Q.              Q.              Q
|------------------------------------------|------------------------------------------|
|------------------------------------------|------------------------------------------|
|--8---------------6---------------4-------|--8---------------6---------------4-------|
|--9---------------8---------------6-------|--9---------------8---------------6-------|
|------------------------------------------|------------------------------------------|
|------------------------------------------|------------------------------------------|


  G#m             C#m             B
       PM------|       PM------|      PM----
   E   S  S  S  S  E   S  S  S  S  E  S  S
|------------------------------------------|
|------------------------------------------|
|------------------------------------------|
|------------------------------------------|
|-11--11-11-11-11-16--11-11-11-11-14-11-11-|
|------------------------------------------|
|
|  Q.              Q.              Q
|------------------------------------------|
|------------------------------------------|
|--4---------------9---------------8-------|
|--6--------------11---------------9-------|
|------------------------------------------|
|------------------------------------------|


         Bbm             B        C#m
 -----|       PM------|      PM|      PM|
   S   S  E   S  S  S  S  E  S  S  E  S  S
|------------------------------------------||
|------------------------------------------||
|------------------------------------------||
|------------------------------------------||
|-11--11-13--11-11-11-11-14-11-11-16-11-11-||
|------------------------------------------||
|
| +E      Q.              Q        Q
|------------------------------------------||
|------------------------------------------||
|-(8)-----6---------------8--------9-------||
|-(9)-----8---------------9-------11-------||
|------------------------------------------||
|------------------------------------------||


  Bbm             Ebm             C#
       PM------|       PM------|      PM----
   E   S  S  S  S  E   S  S  S  S  E  S  S
|------------------------------------------|
|------------------------------------------|
|------------------------------------------|
|------------------------------------------|
|-13--13-13-13-13-18--13-13-13-13-16-13-13-|
|------------------------------------------|
|
|  Q.              Q.              Q
|------------------------------------------|
|------------------------------------------|
|--6--------------11--------------10-------|
|--8--------------13--------------11-------|
|------------------------------------------|
|------------------------------------------|


          Cm              C#       Ebm        Bbm             Ebm             C#
 ------|       PM------|      PM|      PM          PM------|       PM------|      PM|
    S   S  E   S  S  S  S  E  S  S  E  S  S    E   S  S  S  S  E   S  S  S  S  E  S  S
|-------------------------------------------|------------------------------------------|
|-------------------------------------------|------------------------------------------|
|-------------------------------------------|------------------------------------------|
|-------------------------------------------|------------------------------------------|
|--13--13-15--13-13-13-13-16-13-13-18-13-13-|-13--13-13-13-13-18--13-13-13-13-16-13-13-|
|-------------------------------------------|------------------------------------------|
|
|  +E      Q.              Q        Q          Q.              Q.              Q
|-------------------------------------------|------------------------------------------|
|-------------------------------------------|------------------------------------------|
|-(10)-----8--------------10-------11-------|--6--------------11--------------10-------|
|-(11)----10--------------11-------13-------|--8--------------13--------------11-------|
|-------------------------------------------|------------------------------------------|
|-------------------------------------------|------------------------------------------|


          Cm              C#       Ebm
    PM-|       PM------|      PM|      PM
    S   S  E   S  S  S  S  E  S  S  E  S  S
|-------------------------------------------|
|-------------------------------------------|
|-------------------------------------------|
|-------------------------------------------|
|--13--13-15--13-13-13-13-16-13-13-18-13-13-|
|-------------------------------------------|
|
|  +E      Q.              Q        Q
|-------------------------------------------|
|-------------------------------------------|
|-(10)-----8--------------10-------11-------|
|-(11)----10--------------11-------13-------|
|-------------------------------------------|
|-------------------------------------------|


  C#              Cm              Bbm        C#              Cm              Bbm
       PM------|       PM------|      PM|         PM------|       PM------|      PM|
   E   S  S  S  S  E   S  S  S  S  E  S  S    E   S  S  S  S  E   S  S  S  S  E  S  S
|------------------------------------------|------------------------------------------|
|------------------------------------------|------------------------------------------|
|------------------------------------------|------------------------------------------|
|------------------------------------------|------------------------------------------|
|-16--13-13-13-13-15--13-13-13-13-13-13-13-|-16--13-13-13-13-15--13-13-13-13-13-13-13-|
|------------------------------------------|------------------------------------------|
|
|  Q.              Q.              Q          Q.              Q.              Q
|------------------------------------------|------------------------------------------|
|------------------------------------------|------------------------------------------|
|-10---------------8---------------6-------|-10---------------8---------------6-------|
|-11--------------10---------------8-------|-11--------------10---------------8-------|
|------------------------------------------|------------------------------------------|
|------------------------------------------|------------------------------------------|


  Bbm             Ebm             C#
       PM------|       PM------|      PM----
   E   S  S  S  S  E   S  S  S  S  E  S  S
|------------------------------------------|
|------------------------------------------|
|------------------------------------------|
|------------------------------------------|
|-13--13-13-13-13-18--13-13-13-13-16-13-13-|
|------------------------------------------|
|
|  Q.              Q.              Q
|------------------------------------------|
|------------------------------------------|
|--6--------------11--------------10-------|
|--8--------------13--------------11-------|
|------------------------------------------|
|------------------------------------------|


          Cm              C#       Ebm
 ------|       PM------|      PM|      PM
    S   S  E   S  S  S  S  E  S  S  E  S  S
|-------------------------------------------||
|-------------------------------------------||
|-------------------------------------------||
|-------------------------------------------||
|--13--13-15--13-13-13-13-16-13-13-18-13-13-||
|-------------------------------------------||
|
|  +E      Q.              Q        Q
|-------------------------------------------||
|-------------------------------------------||
|-(10)-----8--------------10-------11-------||
|-(11)----10--------------11-------13-------||
|-------------------------------------------||
|-------------------------------------------||


 Bridge
  F#5/C#
  Gtr I
   W
   |
   /

  Gtr II
      PM------|      PM------|      PM----
   E  S  S  S  S  E  S  S  S  S  E  S  S
|----------------------------------------|
|----------------------------------------|
|-11-11-11-11-11-16-11-11-11-11-14-11-11-|
|----------------------------------------|
|----------------------------------------|
|----------------------------------------|


                                           G5/D
  +W                                        W
   |                                        |
   /                                        /

 ----|      PM------|      PM|      PM|        PM------|      PM------|      PM|
   S  S  E  S  S  S  S  E  S  S  E  S  S    E  S  S  S  S  E  S  S  S  S  E  S  S
|----------------------------------------|----------------------------------------|
|----------------------------------------|----------------------------------------|
|-11-11-13-11-11-11-11-14-11-11-16-11-11-|-12-12-12-12-12-16-12-12-12-12-14-12-12-|
|----------------------------------------|----------------------------------------|
|----------------------------------------|----------------------------------------|
|----------------------------------------|----------------------------------------|


  +W
   |
   /

   PM|      PM------|      PM|      PM|
   S  S  E  S  S  S  S  E  S  S  E  S  S
|----------------------------------------|
|----------------------------------------|
|-12-12-12-12-12-12-12-14-12-12-16-12-12-|
|----------------------------------------|
|----------------------------------------|
|----------------------------------------|


  F#5/C#
   W                                       +W
   |                                        |
   /                                        /

      PM------|      PM------|      PM--------|      PM------|      PM|      PM|
   E  S  S  S  S  E  S  S  S  S  E  S  S    S  S  E  S  S  S  S  E  S  S  E  S  S
|----------------------------------------|----------------------------------------|
|----------------------------------------|----------------------------------------|
|-11-11-11-11-11-16-11-11-11-11-14-11-11-|-11-11-13-11-11-11-11-14-11-11-16-11-11-|
|----------------------------------------|----------------------------------------|
|----------------------------------------|----------------------------------------|
|----------------------------------------|----------------------------------------|


  E5/B
  W                             +W
  |                              |
  /                              /

    PM----|    PM----|    PM-------|    PM----|    PM|    PM|
  E S S S S  E S S S S  E S S    S S  E S S S S  E S S  E S S
|-----------------------------|-------------------------------|
|-----------------------------|-------------------------------|
|-9-9-9-9-9-14-9-9-9-9-12-9-9-|--9-9-11-9-9-9-9-12-9-9-14-9-9-|
|-----------------------------|-------------------------------|
|-----------------------------|-------------------------------|
|-----------------------------|-------------------------------|


  F#5/C#
   W
   |
   /

      PM------|      PM------|      PM|
   E  S  S  S  S  E  S  S  S  S  E  S  S
|----------------------------------------|
|----------------------------------------|
|-11-11-11-11-11-16-11-11-11-11-14-11-11-|
|----------------------------------------|
|----------------------------------------|
|----------------------------------------|


  +W
   |
   /

   PM|      PM------|      PM|      PM|
   S  S  E  S  S  S  S  E  S  S  E  S  S
|----------------------------------------|
|----------------------------------------|
|-11-11-13-11-11-11-11-14-11-11-16-11-11-|
|----------------------------------------|
|----------------------------------------|
|----------------------------------------|


  G5/D
   W                                       +W
   |                                        |
   /                                        /

      PM------|      PM------|      PM--------|      PM------|      PM|      PM|
   E  S  S  S  S  E  S  S  S  S  E  S  S    S  S  E  S  S  S  S  E  S  S  E  S  S
|----------------------------------------|----------------------------------------|
|----------------------------------------|----------------------------------------|
|-12-12-12-12-12-16-12-12-12-12-14-12-12-|-12-12-12-12-12-12-12-14-12-12-16-12-12-|
|----------------------------------------|----------------------------------------|
|----------------------------------------|----------------------------------------|
|----------------------------------------|----------------------------------------|


  A5/E
   W
   |
   /

      PM------|      PM------|      PM|
   E  S  S  S  S  E  S  S  S  S  E  S  S
|----------------------------------------|
|----------------------------------------|
|-14-14-14-14-14-18-14-14-14-14-14-14-14-|
|----------------------------------------|
|----------------------------------------|
|----------------------------------------|


  G5/D              A5/E                B5/F#
   H                 H                    W            +W
   |                 |                    |             |
   /                 /                    /             /

      PM------|      PM------|
   E  S  S  S  S  E  S  S  S  S  E  E    +W            +H      +H
|-------------------------------------|-------------|------------------||
|----------------------------------16-|-(16)--------|-(16)----(16)\----||
|-16-12-12-12-12-18-14-14-14-14-16----|-------------|------------------||
|-------------------------------------|-------------|------------------||
|-------------------------------------|-------------|------------------||
|-------------------------------------|-------------|------------------||


   Verse III
    E5/E5/B                              B5/A5/E
    Gtr I
         PM--------|       PM------|   PM      PM
    Q  E E S S E S S E   S S E S S E S S  E  E E
||---------------------|-------------------------|
||o--------------------|-------------------------|
||---------------------|-------------------------|
||--2--2---------------|------------------9--7---|
||o-2--2---------------|------------------9--7---|
||-------0-0-0-0-0-0-0-|-0-0-0-0-0-0-0-0-------0-|
|
|   Gtr II
|        PM----------------------------|       PM
|   Q  E E S S E S S E   S S E S S E S S  E  E E
||---------------------|-------------------------|
||o--------------------|-------------------------|
||---------------------|-------------------------|
||--9--9---------------|-----------------16-14---|
||o-7--7-7-7-7-7-7-7-7-|-7-7-7-7-7-7-7-7-14-12-7-|
||---------------------|-------------------------|


  G5/DG5/D                                              A5/B5/F#
   Q   E  E  S  S  E  S  S  E    S  S  E  S  S  E  S  S  E  E E
|-----------------------------|----------------------------------|
|-----------------------------|----------------------------------|
|-----------------------------|----------------------------------|
|--5---5----------------------|--------------------------7--9----|
|--5---5----------------------|--------------------------7--9----|
|---------3--3--3--3--3--3--3-|--3--3--3--3--3--3--3--3-------0--|
|
|         PM-----------------------------------------|        PM
|  Q   E  E  S  S  E  S  S  E    S  S  E  S  S  E  S  S  E  E E
|-----------------------------|----------------------------------|
|-----------------------------|----------------------------------|
|-----------------------------|----------------------------------|
|-12--12----------------------|-------------------------14-16----|
|-10--10-10-10-10-10-10-10-10-|-10-10-10-10-10-10-10-10-12-14-7--|
|-----------------------------|----------------------------------|


  F5/CF5/C                               G5/F5/C
         PM------------------------|           PM
   Q   E E S S E S S E   S S E S S E S S  E  E E
|----------------------|-------------------------|
|----------------------|-------------------------|
|----------------------|-------------------------|
|--3---3---------------|------------------5--3---|
|--3---3---------------|------------------5--3---|
|--------1-1-1-1-1-1-1-|-1-1-1-1-1-1-1-1-------0-|
|
|                                              PM
|  Q   E E S S E S S E   S S E S S E S S  E  E E
|----------------------|-------------------------|
|----------------------|-------------------------|
|----------------------|-------------------------|
|-10--10---------------|-----------------12-10---|
|--8---8-8-8-8-8-8-8-8-|-8-8-8-8-8-8-8-8-10--8-7-|
|----------------------|-------------------------|


  E5/B                            D5         F5
         PM---------------------|    PM----|
  Q  +S  E S S E S S E.   S S S S Q  S S S S  Q    3x
|-----------------------|--------------------------||
|-----------------------|-------------------------o||
|-----------------------|--------------------------||
|-2--(2)----------------|---------7----------10----||
|-2--(2)----------------|-5-5-5-5-5--8-8-8-8--8---o||
|--------0-0-0-0-0-0-0--|--------------------------||
|
|                         PM----|    PM----|
| Q  +S  E S S E S S E.   S S S S Q  S S S S  Q    3x
|-----------------------|--------------------------||
|-----------------------|-------------------------o||
|-----------------------|--------------------------||
|-9--(9)----------------|---------7----------10----||
|-7--(7)-7-7-7-7-7-7-7--|-5-5-5-5-5--8-8-8-8--8---o||
|-----------------------|--------------------------||


   Chorus
    E5/B
     W
||-----------------------------------------|
||o----------------------------------------|
||-----------------------------------------|
||---2-------------------------------------|
||o--2-------------------------------------|
||-----------------------------------------|
|
|       PM------|      PM------|      PM----
|    E  S  S  S  S  E  S  S  S  S  E  S  S
||-----------------------------------------|
||o----------------------------------------|
||-----------------------------------------|
||--14-14-14-14-14-19-14-14-14-14-17-14-14-|
||o----------------------------------------|
||-----------------------------------------|


                        A5/E                G5/D
  +H                     H                   W
|-----------------------------------------|------------------------------------------|
|-----------------------------------------|------------------------------------------|
|-----------------------------------------|------------------------------------------|
|-(2)--------------------7----------------|--5---------------------------------------|
|-(2)--------------------7----------------|--5---------------------------------------|
|-----------------------------------------|------------------------------------------|
|
|-----|      PM------|      PM|      PM|        PM------|      PM------|      PM|
|  S   S  E  S  S  S  S  E  S  S  E  S  S    E  S  S  S  S  E  S  S  S  S  E  S  S
|-----------------------------------------|------------------------------------------|
|-----------------------------------------|------------------------------------------|
|-----------------------------------------|------------------------------------------|
|-14--14-16-14-14-14-14-17-14-14-19-14-14-|-14-14-14-14-14-19-14-14-14-14-17-14-14---|
|-----------------------------------------|------------------------------------------|
|-----------------------------------------|------------------------------------------|


  G5/D                           A5/E
   H.                             Q
|-----------------------------------------|
|-----------------------------------------|
|-----------------------------------------|
|--5------------------------------7-------|
|--5------------------------------7-------|
|-----------------------------------------|
|
|  PM-|      PM------|      PM|      PM|
|  S   S  E  S  S  S  S  E  S  S  E  S  S
|-----------------------------------------|
|-----------------------------------------|
|-----------------------------------------|
|-14--14-16-14-14-14-14-17-14-14-19-14-14-|
|-----------------------------------------|
|-----------------------------------------|


  G5/D                                     D/F#
   W                                        W
|----------------------------------------|----------------------------------------|
|----------------------------------------|----------------------------------------|
|----------------------------------------|----------------------------------------|
|--5-------------------------------------|----------------------------------------|
|--5-------------------------------------|--5-------------------------------------|
|----------------------------------------|--2-------------------------------------|
|
|     PM------|      PM------|      PM|        PM------|      PM------|      PM|
|  E  S  S  S  S  E  S  S  S  S  E  S  S    E  S  S  S  S  E  S  S  S  S  E  S  S
|----------------------------------------|----------------------------------------|
|----------------------------------------|----------------------------------------|
|----------------------------------------|----------------------------------------|
|-17-14-14-14-14-16-14-14-14-14-14-14-14-|-17-14-14-14-14-16-14-14-14-14-14-14-14-|
|----------------------------------------|----------------------------------------|
|----------------------------------------|----------------------------------------|


  E5/B
   W
|----------------------------------------|
|----------------------------------------|
|----------------------------------------|
|--2-------------------------------------|
|--2-------------------------------------|
|----------------------------------------|
|
|     PM------|      PM------|      PM----
|  E  S  S  S  S  E  S  S  S  S  E  S  S
|----------------------------------------|
|----------------------------------------|
|----------------------------------------|
|-14-14-14-14-14-19-14-14-14-14-17-14-14-|
|----------------------------------------|
|----------------------------------------|


  +W                                       4x
|------------------------------------------||
|-----------------------------------------o||
|------------------------------------------||
|-(2)--------------------------------------||
|-(2)-------------------------------------o||
|------------------------------------------||
|
|-----|      PM------|      PM|      PM|
|  S   S  E  S  S  S  S  E  S  S  E  S  S  4x
|------------------------------------------||
|-----------------------------------------o||
|------------------------------------------||
|-14--14-16-14-14-14-14-17-14-14-19-14-14--||
|-----------------------------------------o||
|------------------------------------------||


 Outro
  F#5/C#
  Gtr I
   W
   |
   /

  Gtr II
      PM------|      PM------|      PM----
   E  S  S  S  S  E  S  S  S  S  E  S  S
|----------------------------------------|
|----------------------------------------|
|-11-11-11-11-11-16-11-11-11-11-14-11-11-|
|----------------------------------------|
|----------------------------------------|
|----------------------------------------|


                                           G5/D
  +W                                        W
   |                                        |
   /                                        /

 ----|      PM------|      PM|      PM|        PM------|      PM------|      PM|
   S  S  E  S  S  S  S  E  S  S  E  S  S    E  S  S  S  S  E  S  S  S  S  E  S  S
|----------------------------------------|----------------------------------------|
|----------------------------------------|----------------------------------------|
|-11-11-13-11-11-11-11-14-11-11-16-11-11-|-12-12-12-12-12-16-12-12-12-12-14-12-12-|
|----------------------------------------|----------------------------------------|
|----------------------------------------|----------------------------------------|
|----------------------------------------|----------------------------------------|


  +W
   |
   /

   PM|      PM------|      PM|      PM|
   S  S  E  S  S  S  S  E  S  S  E  S  S
|----------------------------------------|
|----------------------------------------|
|-12-12-12-12-12-12-12-14-12-12-16-12-12-|
|----------------------------------------|
|----------------------------------------|
|----------------------------------------|


  F#5/C#
   W                                       +W
   |                                        |
   /                                        /

      PM------|      PM------|      PM--------|      PM------|      PM|      PM|
   E  S  S  S  S  E  S  S  S  S  E  S  S    S  S  E  S  S  S  S  E  S  S  E  S  S
|----------------------------------------|----------------------------------------|
|----------------------------------------|----------------------------------------|
|-11-11-11-11-11-16-11-11-11-11-14-11-11-|-11-11-13-11-11-11-11-14-11-11-16-11-11-|
|----------------------------------------|----------------------------------------|
|----------------------------------------|----------------------------------------|
|----------------------------------------|----------------------------------------|


  E5/B
  W                             +W
  |                              |
  /                              /

    PM----|    PM----|    PM-------|    PM----|    PM|    PM|
  E S S S S  E S S S S  E S S    S S  E S S S S  E S S  E S S
|-----------------------------|-------------------------------|
|-----------------------------|-------------------------------|
|-9-9-9-9-9-14-9-9-9-9-12-9-9-|--9-9-11-9-9-9-9-12-9-9-14-9-9-|
|-----------------------------|-------------------------------|
|-----------------------------|-------------------------------|
|-----------------------------|-------------------------------|


  F#5/C#
   W
   |
   /

      PM------|      PM------|      PM|
   E  S  S  S  S  E  S  S  S  S  E  S  S
|----------------------------------------|
|----------------------------------------|
|-11-11-11-11-11-16-11-11-11-11-14-11-11-|
|----------------------------------------|
|----------------------------------------|
|----------------------------------------|


  +W
   |
   /

   PM|      PM------|      PM|      PM|
   S  S  E  S  S  S  S  E  S  S  E  S  S
|----------------------------------------|
|----------------------------------------|
|-11-11-13-11-11-11-11-14-11-11-16-11-11-|
|----------------------------------------|
|----------------------------------------|
|----------------------------------------|


  G5/D
   W                                       +W
   |                                        |
   /                                        /

      PM------|      PM------|      PM--------|      PM------|      PM|      PM|
   E  S  S  S  S  E  S  S  S  S  E  S  S    S  S  E  S  S  S  S  E  S  S  E  S  S
|----------------------------------------|----------------------------------------|
|----------------------------------------|----------------------------------------|
|-12-12-12-12-12-16-12-12-12-12-14-12-12-|-12-12-12-12-12-12-12-14-12-12-16-12-12-|
|----------------------------------------|----------------------------------------|
|----------------------------------------|----------------------------------------|
|----------------------------------------|----------------------------------------|


  A5/E
   W
   |
   /

      PM------|      PM------|      PM|
   E  S  S  S  S  E  S  S  S  S  E  S  S
|----------------------------------------|
|----------------------------------------|
|-14-14-14-14-14-18-14-14-14-14-14-14-14-|
|----------------------------------------|
|----------------------------------------|
|----------------------------------------|


  G5/D              A5/E              B5/F#
   H                 H                 W           +W
   |                 |                 |            |
   /                 /                 /            /

      PM------|      PM------|
   E  S  S  S  S  E  S  S  S  S  Q     W           +W
|-----------------------------------|-----------|---------|
|-----------------------------------|-16--------|-(16)----|
|-16-12-12-12-12-18-14-14-14-14-16--|-----------|---------|
|-----------------------------------|-----------|---------|
|-----------------------------------|-----------|---------|
|-----------------------------------|-----------|---------|


  E5/B
  Gtr I
   W           +W            +W
   |            |             |
   /            /             /

  Gtr II
   W           +W            +W
|-----------|-------------|---------*|
|-----------|-------------|---------*|
|-----------|-------------|---------*|
|--9--------|--(9)--------|--(9)----*|
|--7--------|--(7)--------|--(7)----*|
|-----------|-------------|---------*|
|
| Gtr III
|  W           +W            +W
|-----------|-------------|---------*|
|-----------|-------------|---------*|
|--9--------|--(9)--------|--(9)----*|
|-----------|-------------|---------*|
|-----------|-------------|---------*|
|-----------|-------------|---------*|
|
| Gtr IV
|  W           +W            +W
|-----------|-------------|---------*|
|-17--------|-(17)--------|-(17)----*|
|-16--------|-(16)--------|-(16)----*|
|-----------|-------------|---------*|
|-----------|-------------|---------*|
|-----------|-------------|---------*|



Duration Legend
---------------
W - whole; H - half; Q - quarter; E - 8th; S - 16th; T - 32nd; X - 64th; a - acciaccatura
+ - note tied to previous; . - note dotted; .. - note double dotted
Uncapitalized letters represent notes that are staccato (1/2 duration)
Irregular groupings are notated above the duration line
Duration letters will always appear directly above the note/fret number it represents the
duration for.  Duration letters with no fret number below them represent rests.  Multi-
bar rests are notated in the form Wxn, where n is the number of bars to rest for.  Low
melody durations appear below the staff

Tablature Legend
----------------
 h   - hammer-on
 p   - pull-off
 b   - bend
 pb  - pre-bend
 r   - bend release (if no number after the r, then release immediately)
 /\  - slide into or out of (from/to "nowhere")
 s   - legato slide
 S   - shift slide
 - natural harmonic
[n]  - artificial harmonic
n(n) - tapped harmonic
 ~   - vibrato
 tr  - trill
 T   - tap
 TP  - trem. picking
 PM  - palm muting
\n/  - tremolo bar dip; n = amount to dip
 \n  - tremolo bar down
 n/  - tremolo bar up
/n\  - tremolo bar inverted dip
 =   - hold bend; also acts as connecting device for hammers/pulls
 <> - volume swell (louder/softer)
 x   - on rhythm slash represents muted slash
 o   - on rhythm slash represents single note slash

Misc Legend
-----------
 |  - bar
||  - double bar
||o - repeat start
o|| - repeat end
*|  - double bar (ending)
 :  - bar (freetime)
 $  - Segno
 &  - Coda
Tempo markers -  = BPM(8/16=s8/s16), where s8 = swing 8ths, s16 = swing 16ths

Добавлено: 01.12.2013
Другие материалы по этой песне:

Страница создана 25.04.2012
http://primanota.ru/iced-earth/attila-chords.htm
Привет, Гость.
Предлагаем пройти революционный курс по гитаре.
Подарок от PrimaNota.Ru, забирай!