PrimaNota.ru - самый крупный в мире бесплатный архив песенных текстов, аккордов, табулатур и нот


Ice Cube - You Know How we do it - текст песни, бас-таба, видео

Регистрация Запомнить меня
Войти через:  Facebook Google Twitter Vk Yandex Mail.ru

Ice Cube - You Know How we do it - текст песни, бас-таба, видео

Печатать
Просмотров: 269
This is the version you will see on most other sites:

Version 1   Wait 10 seconds...
G|-----------------------------------|
D|-----------------------------------|
A|----5/7/5--------------------------|
E|-5-5--------0-0-5/7/8--------------|


However, I like this version better even if it's not as accurate.

Version 2   Wait 10 seconds...
G|----8/10/8----3/5h6------------------|
D|-------------------------------------|
A|-0-0---------------------------------|
E|-----------0-0-----------------------|
Добавлено: 20.02.2014
Вам также может быть интересно:
Другие материалы по этой песне:
  • Аккорды и текст

Страница создана 14.03.2012
http://primanota.ru/ice-cube/you-know-how-we-do-it-chords.htm
Привет, Гость.
Предлагаем пройти революционный курс по гитаре.
Подарок от PrimaNota.Ru, забирай!