PrimaNota.ru - самый крупный в мире бесплатный архив песенных текстов, аккордов, табулатур и нот


I Am Oak - On Crest - таба, видео

Регистрация Запомнить меня
Войти через:  Facebook Google Twitter Vk Yandex Mail.ru

I Am Oak - On Crest - таба, видео

Печатать
Просмотров: 155
           Am           Am7        G    G7    F
e|--------------------------------------------------------------------------|
B|----------1-----------1-------------3--------1----------------------------|
G|---------2----X8------0--------4----4--------2------X4--------------------|
D|--------2---------2------------5----3--------3--3-------------------------|
A|---0---------------------------5----------3-------------------------------|
E|-----------------------------3----3---------------------------------------|


  Hardly hope...                   ...on my pillow     
          

         C             G          G7        F 
e|--------------------------------------------------------------------------|
B|--------1------------3----------3---------1-------------------------------|
G|--------0------------4----------4---------2-------------------------------|
D|--------2------------5----------3---------3-------------------------------|
A|---3-------------5----------5----------3----------------------------------|
E|--------------------------------------------------------------------------|

Seaweed.....                       .....a day

after '...a day' repeat it with the new text.

Добавлено: 16.10.2013
Другие материалы по этой песне:
  • Аккорды и текст

Страница создана 16.10.2013
http://primanota.ru/i-am-oak/on-crest-chords.htm
Привет, Гость.
Предлагаем пройти революционный курс по гитаре.
Подарок от PrimaNota.Ru, забирай!