PrimaNota.ru - самый крупный в мире бесплатный архив песенных текстов, аккордов, табулатур и нот


I Am Oak - Clavicles - таба, видео

Регистрация Запомнить меня
Войти через:  Facebook Google Twitter Vk Yandex Mail.ru

I Am Oak - Clavicles - таба, видео

Печатать
Просмотров: 259
e|---------------------------------------------------------------------------|
B|---------------------------------------------------------------------------|
G|-------------1---------------1---------------1---------------1-------------|
D|---------2-------2-------2-------2-------2-------2-------2-------2---------|
A|-----4---------------4---------------4---------------4---------------------|
E|---------------------------------------------------------------------------|

e|---------------------------------------------------------------------------|
B|---------------------------------------------------------------------------|
G|--------------1-----------------1-----------------1----------------1-------|
D|----------2-----------------2-----------------2----------------2-----------|
A|-----0-----------------0-----------------0-----------------0---------------|
E|---------------------------------------------------------------------------|



http://www.iamoak.com/
Добавлено: 18.08.2013
Другие материалы по этой песне:
  • Аккорды и текст

Страница создана 18.08.2013
http://primanota.ru/i-am-oak/clavicles-chords.htm
Привет, Гость.
Предлагаем пройти революционный курс по гитаре.
Подарок от PrimaNota.Ru, забирай!