PrimaNota.ru - самый крупный в мире бесплатный архив песенных текстов, аккордов, табулатур и нот


Hypocrisy - Tempt - текст песни, таба, видео

Регистрация Запомнить меня
Войти через:  Facebook Google Twitter Vk Yandex Mail.ru

Hypocrisy - Tempt - текст песни, таба, видео

Печатать
Просмотров: 106
                              HYPOCRISY - T.E.M.P.T.    
                      From the Album - THE FORUTH DIMENSION     
                          Copyright - NUCLEAR BLAST 1994
                            Version 1.0 - June 1, 2002


Transcribed by: James Williams (Inverted)

For Questions, Comments, Newest Version, or Corrections contact
Inverted: at Inverted_one@hotmail.com

Check Out Death8699.com Metaltabs.com or dsrmusic.com for More
Transcriptions:http://www.Death8699.com http://www.Metaltabs.com


.  - palm mute           /  - slide up to
\  - slide down to       ~  - vibrato
h  - hammer on           b  - Bend
p  - pull off            Suffixes for bend
t  - tap                 f  - full bend    h - half bend
ph - pinched harmonic    q  - quarter bend t - tap bend
*  - see comment         ^  - Hold bend    r release bend
x  - Stuccatto           ~  - vibrato bend
,  - slight palm mute    () - ghost note, sustained note
"  - tremolo note        <> - Trill

Tunning "B"E"A"D"F#"B"


Riff 1
|----------------------------------------------------|
|----------------------------------------------------|
|----------------------------------------------------|
|----------------------------------------------------|
|------------------6666555566665555------------------|
|--3333333333333333----------------7777777777777777--|


Fill
|-----------------------------------------------------------------------|
|-----------------------------------------------------------------------|
|-----------------------------------------------------------------------|
|--2x-------------------------------------------------------------------|
|--2x-------------------------------------------------------------------|
|--0x--Bass-line-leads-in-----------------------------------------------|


Riff 2                                                            GTR I
|-----------------------------------|-----------------------------------|
|-----------------------------------|-----------------------------------|
|-----------------------------------|-----------------------------------|
|-----------------------------------|-----------------------------------|
|-----------------------------------|-----------------------------------|
|--33332222000033332222000033332222-|-33332222000033332222000055552222--|
|                                                                       |
|-----------------------------------|-----------------------------------|
|-----------------------------------|-----------------------------------|
|-----------------------------------|-----------------------------------|
|-----------------------------------|-----------------------------------|
|--5---4---2---5---4---2---5---4----|-5---4---2---5---4---2---7---4-----|
|--3---2---0---3---2---0---3---2----|-3---2---0---3---2---0---5---2-----|
|  .   .   .   .   .   .   .   .      .   .   .   .   .   .   .   .     |
|-----------------------------------|-----------------------------------|
|-----------------------------------|-----------------------------------|
|-----------------------------------|-----------------------------------|
|-----------------------------------|-----------------------------------|
|-----------------------------------|-----------------------------------|
|--33332222000033332222000033332222-|-33332222000033332222000055552222--|
|                                                                       |
|-----------------------------------|-----------------------------------|
|-----------------------------------|-----------------------------------|
|-----------------------------------|-----------------------------------|
|-----------------------------------|-----------------------------------|
|--5---4---2---5---4---2---5---4----|-5---4---2---5---2x----------------|
|--3---2---0---3---2---0---3---2----|-3---2---0---3---0x----------------|
   .   .   .   .   .   .   .   .      .   .   .   .                

                                                                  GTR II
|-----------------------------------|-----------------------------------|
|-----------------------------------|-----------------------------------|
|-----------------------------------|-----------------------------------|
|-----------------------------------|-----------------------------------|
|--5---4---2---5---4---2---5---4----|-5---4---2---5---4---2---7---4-----|
|--3---2---0---3---2---0---3---2----|-3---2---0---3---2---0---5---2-----|
|                                                                       |
|-----------------------------------|-----------------------------------|
|-----------------------------------|-----------------------------------|
|-----------------------------------|-----------------------------------|
|-----------------------------------|-----------------------------------|
|--5---4---2---5---4---2---5---4----|-5---4---2---5---4---2---7---4-----|
|--3---2---0---3---2---0---3---2----|-3---2---0---3---2---0---5---2-----|
|  .   .   .   .   .   .   .   .      .   .   .   .   .   .   .   .     |
|-----------------------------------|-----------------------------------|
|-----------------------------------|-----------------------------------|
|-----------------------------------|-----------------------------------|
|-----------------------------------|-----------------------------------|
|--5---4---2---5---4---2---5---4----|-5---4---2---5---4---2---7---4-----|
|--3---2---0---3---2---0---3---2----|-3---2---0---3---2---0---5---2-----|
|                                                                       |
|-----------------------------------|-----------------------------------|
|-----------------------------------|-----------------------------------|
|-----------------------------------|-----------------------------------|
|-----------------------------------|-----------------------------------|
|--5---4---2---5---4---2---5---4----|-5---4---2---5---2x----------------|
|--3---2---0---3---2---0---3---2----|-3---2---0---3---0x----------------|
   .   .   .   .   .   .   .   .      .   .   .   .

Riff 1-A
|------------------------------------------------------------|
|------------------------------------------------------------|
|------------------------------------------------------------|
|------------------------------------------------------------|
|------------------6666555566665555--------------------------|
|--3333333333333333----------------7777777777777777----------|
|                                                            |
|------------------------------------------------------------|
|------------------------------------------------------------|
|------------------------------------------------------------|
|--------------------------------------------------44445555--|
|------------------6666555566665555--------------------------|
|--3333333333333333----------------7777777777777777----------|


Riff 3-A
|--------------------------------------------------|
|--------------------------------------------------|
|--------------------------------------------------|
|--------------------------------------------------|
|--------------------------------------------------|
|--00000000000077777722222233333333333333333333333-|


Riff 3-B
|--------------------------------------------------|
|--------------------------------------------------|
|--------------------------------------------------|
|--------------------------------------------------|
|--------------------------------------------------|
|-0-000-0-000-7-777-2-222-3-333-3-333-3-333-3-333--|
  . ... . ... . ... . ... . ... . ... . ... . ...


Riff 4                                        GTR I
|---------------------------------------------------|
|---------------------------------------------------|
|---------------------------------------------------|
|----8-9---8-9---8-9---8-9---8-9---8-9---8-9---8-9--|
|--7-----7-----7-----7-----7-----7-----7-----7------|
|---------------------------------------------------|
|                                                   |
|---------------------------------------------------|
|---------------------------------------------------|
|---------------------------------------------------|
|----7-8---7-8---7-8---7-8---7-8---7-8---7-8---7-8--|
|--6-----6-----6-----6-----6-----6-----6-----6------|
|---------------------------------------------------|

                                              GTR II
|---------------------------------------------------|
|---------------------------------------------------|
|---------------------------------------------------|
|--9------------------------------------------------|
|--7------------------------------------------------|
|--7------------------------------------------------|
|                                                   |
|---------------------------------------------------|
|---------------------------------------------------|
|---------------------------------------------------|
|--8------------------------------------------------|
|--6------------------------------------------------|
|--6------------------------------------------------|


Riff 5-A
|------------------------------------------------------------|
|------------------------------------------------------------|
|----------------7--9---------------------7--9---------------|
|--2------3------7--9-------2------3------7--9-------5-------|
|--2------3------5--7-------2------3------5--7-------5-------|
|--0-0000-1-0000-------0000-0-0000-1-0000-------0000-3-0000--|
     ....   ....       ....   ....   ....       ....   ....

Riff 5-B (Solo Riff, played over 5-A)
|------------------------------------------------------------|
|------------------------------------------------------------|
|------------------------------------------------------------|
|------------------------------------------------------------|
|----------------555777-------------------555777-------------|
|--00000001100000------0000000000001100000------00000330000--|


Solo (E Natural Minor, 160 BPM, 32nd notes.) Good Luck!
|-------------------------------------------------------------------- 
|-------------------------------------------------------------------- 
|-------------------------------------------------------------------- 
|-----------------------------------------------12"------12"14"---12" 
|-----------12"------12"14"---12"14"15"12"14"15"---14"15"------15"--- 
|-/12"14"15"---14"15"------15"--------------------------------------- 
    .  .  .  .  .  .  .  .  .  .  .  .  .  .  .  .  .  .  .  .  .  .

--------------------------------------------------------------------- 
---------------------------------------------------13"------13"15"--- 
---------------12"------12"14"---12"14"16"12"14"16"---14"16"------16" 
14"16"12"14"16"---14"16"------16"------------------------------------ 
--------------------------------------------------------------------- 
--------------------------------------------------------------------- 
 .  .  .  .  .  .  .  .  .  .  .  ,  ,  ,  ,  ,  ,  ,  ,  ,  ,  ,  ,

--------------------------------------------------------------------- 
13"15"17"17"15"13"---15"13"------13"--------------------------------- 
------------------16"------16"14"---16"14"12"16"14"12"---14"12"------ 
------------------------------------------------------16"------16"14" 
--------------------------------------------------------------------- 
--------------------------------------------------------------------- 
 ,  ,  ,  ,  ,  ,  ,  ,  ,  ,  ,  ,  ,  ,  ,  ,  ,  ,  .  .  .  .  .

--------------------------------------------------------------------- 
--------------------------------------------------------------------- 
12"------------------------------------------------------------------ 
---16"14"12"16"14"12"---14"12"------12"------------------------------ 
---------------------15"------15"14"---15"14"12"15"14"12"---14"12"--- 
---------------------------------------------------------15"------15" 
 .  .  .  .  .  .  .  .  .  .  .  .  .  .  .  .  .  .  .  .  .  .  .

-----------------1514121514121514121514121514121514121514121514121514 
--------------------------------------------------------------------- 
--------------------------------------------------------------------- 
--------------------------------------------------------------------- 
---12"--------------------------------------------------------------- 
14"---15"14"12"/----------------------------------------------------- 
 .  .  .  .  . .

12151412151412151412------------------------------------------------- 
---------------------17"15"13"---15"13"------13"--------------------- 
------------------------------16"------16"14"---16"14"12"16"14"12"--- 
------------------------------------------------------------------16" 
--------------------------------------------------------------------- 
--------------------------------------------------------------------- 
                      ,  ,  ,  ,  ,  ,  ,  ,  ,  ,  ,  ,  ,  ,  ,  .

--------------------------------------------------------------------- 
--------------------------------------------------------------------- 
14"12"------12"------------------------------------------------------ 
------16"14"---16"14"12"16"14"12"---14"12"------12"------------------ 
---------------------------------15"------15"14"---15"14"12"15"14"12" 
--------------------------------------------------------------------- 
 .  .  .  .  .  .  .  .  .  .  .  .  .  .  .  .  .  .  .  .  .  .  .

---------------------------17^------| 
---------------------------bf-------| 
------------------------------------| 
------------------------------------| 
---14"12"------12"------------------| 
15"------15"14"---15"14"12"---------| 
 .  .  .  .  .  .  .  .  .

Riff 2-A
|-----------------------------------|-----------------------------------|
|-----------------------------------|-----------------------------------|
|-----------------------------------|-----------------------------------|
|-----------------------------------|-----------------------------------|
|--5---4---2---5---4---2---5---4----|-5---4---2---5---4---2---7---4-----|
|--3---2---0---3---2---0---3---2----|-3---2---0---3---2---0---5---2-----|
   .   .   .   .   .   .   .   .      .   .   .   .   .   .   .   .      

End
|------------------------------------------------|
|------------------------------------------------|
|----------------7--9---------------------7--9x--|
|--2------3------7--9-------2------3------7--9x--|
|--2------3------5--7-------2------3------5--7x--|
|--0-0000-1-0000-------0000-0-0000-1-0000--------|
     ....   ....       ....   ....   ....       


Check out my other tabs by: Deicide, Obituary, Hypocrisy,
Grave, Catastrophic, Six Feet Under, Incantation and Death
Добавлено: 16.05.2012
Другие материалы по этой песне:
  • Аккорды и текст

Страница создана 16.05.2012
http://primanota.ru/hypocrisy/tempt-chords.htm
Привет, Гость.
Предлагаем пройти революционный курс по гитаре.
Подарок от PrimaNota.Ru, забирай!