PrimaNota.ru - самый крупный в мире бесплатный архив песенных текстов, аккордов, табулатур и нот


Hypocrisy - Through The Window Of Time - текст песни, таба, видео

Регистрация Запомнить меня
Войти через:  Facebook Google Twitter Vk Yandex Mail.ru

Hypocrisy - Through The Window Of Time - текст песни, таба, видео

Печатать
Просмотров: 74
------------------------------------------------------------------------------

HYPOCRISY-Through the Window of Time  from The Final Chapter 1998 NB
-------------------------------------------------------------------------------
Tabbed by:NihilView
E-mail:

Tuning: B STANDARD  BEADGF#B   or 7-string B standard!


    VERY FAST TEMPO!

|---------------------------------------------------------------------------|
|---------------------------------------------------------------------------| INTRO
|---------------------------------------------------------------------------I ...............
|---------------------------------------------------------------------------| FIGURE 1
|--7h10p7-7h10p7--7h10p7-7h10p7------9h12p9-9h12p9-----6h9p6-6h9p6----------|
|---------------------------------------------------------------------------|


|---------------------------------------------------------------------------|
|---------------------------------------------------------------------------|
|---------------------------------------------------------------------------| FIGURE 2
|------------------------------------------------------7h10p7-7h10p7--------|
|-7h10p7-7h10p7-7h10p7--7h10p7-------9h12p9--9h12p9-------------------------|
|---------------------------------------------------------------------------|


|------------------------------------------------------------------------------------|
|------------------------------------------------------------------------------------| FIGURE 3
|------------------------------------------------------------------------------------|
|----------------------------------------------------7h10p7-7h10p7-------------------|
|--REPEAT figure1----7h10p7-7h10p7-7h10p7-7h10p7---------------------6h9p6--6h9p6----|
|------------------------------------------------------------------------------------|



  2 GUITAR FOR BACK-LICK PLAY INTRO FIGURE!
|---------------------------------------------------------------------------------------------|
|---------------------------------------------------------------------------------------------|
|----------1717--16------------17-16---14-17---------------17--16----------13-14-14h1617------| LICK 1
|-141414---------------141414---------------------141414-------------14h15--------------------|
|---------------------------------------------------------------------------------------------|
|---------------------------------------------------------------------------------------------|



|---------------------------------------------------------------------------|
|---------------------------------------------------------------------------|
|---------------------------------------------------------------------------| VERSE BOTH GUITARS!
|--------------------------------5-4----------------------------------------|
|----5-6-------3--2------5-6-----3-2---6-5----------------------------------|
|-0--3-4--0-0--1--0----0-3-4-0-0-------4-3----------------------------------|



|-----------------------------------------------------------------------------|
|-----------------------------------------------------------------------------| CHORUS guitar 1.
|--------------------------------------------------------------------44444----|
|-------------9999999----101010101010---99999--77---99--5555--4444------------| 
|--7777777--------------------------------------------------------------------|
|-----------------------------------------------------------------------------|


|---------------------------------------------------------------------------|
|---------------------------------------------------------------------------| CHORUS guitar 2.
|-----------4----5---4---2---4-------------4--------------------------------|
|---2-------4----5---4---2---4---5---4-----4--------------------------------|
|---2-------2----3---2---0---2---5---4-----2--------------------------------|
|---0----------------------------3---2--------------------------------------|



|----------------------------------------------------17-unison bend---------------------------| BRIDGE
|----------------------------------------------------19---------------------------------------|
|-----4-----5----2--3-------------------------------------------------------------------------|
|-----2-----3----0--3-------2-----3---0-2-3--------------------------------4----5----4--------------|
|-----2-----3----0--3-------2-----3---0-2-3--------------------------------2----3----2---2--0-------|
|--0-----0---------------0-----0----------------------------------------0-----0----0----------3--2--|

P.M--    --              --    --                                       --         P.M.-------------




I------------------------------------------------------------------------------------------I
I------------------------------------------------------------------------------------------I INTERLUDE
I------------------------------------------------------------------------------------------Iand SOLO BACKG.
I------------------------------------------------------------------------------------------I
I--7h10p7p10p7p10p7--7h9p7p9p7p9p7---------------------------------------------------------I
I--------------------------------------8h11p8p11p8p11p8---8h10p8p10p8----5h7p7p5p7---------I



AFTER SOLO REPEAT:VERSE
                  CHORUS







************************************
I P.M. palm muting
| /   slide up
| \   slide down
| h   hammer-on
| p   pull-off
| ~   vibrato
| +   harmonic
| x   Mute note
| b   Bend
| pb  Pre-bend
| br  Bend release
| pbr Pre-bend release
| brb Bend release bend

************************************
Добавлено: 23.12.2015
Другие материалы по этой песне:
  • Аккорды и текст

Страница создана 15.05.2012
http://primanota.ru/hypocrisy/through-the-window-of-time-chords.htm
Привет, Гость.
Предлагаем пройти революционный курс по гитаре.
Подарок от PrimaNota.Ru, забирай!