PrimaNota.ru - самый крупный в мире бесплатный архив песенных текстов, аккордов, табулатур и нот


Hot Water Music - Turnstile - текст песни, таба, бас-таба, видео

Регистрация Запомнить меня
Войти через:  Facebook Google Twitter Vk Yandex Mail.ru

Hot Water Music - Turnstile - текст песни, таба, бас-таба, видео

Печатать
Просмотров: 124
-------------------------------------------------------------------------------
                           TURNSTILE - Hot Water Music
-------------------------------------------------------------------------------

From:   herbivore76 Tuning: Standard
 
Verse (4 times)
E|--------------------------------|  
B|--------------------------------|  
G|--------------------------------| 
D|4-----7-------7-7-------4-------|  
A|2-----5-5-----5-4-------1-------|  
E|--------3-----------------------|  

Listen to the track for the rhythm

Chorus Part 1 (2 times)
E|----------------|  
B|----------------|  
G|----------------| 
D|7-------4-------|  
A|5---7---2---5-7-|  
E|----5-------3-5-| 

Chorus Part 2 (2 times)
E|----------------|  
B|----------------|  
G|----------------| 
D|7-------4-------|  
A|5---7---2---5---|  
E|----5-------3---|

solo # 1 (goes over Chorus Part 2)
E|----------------------------------------------------------------|  
B|----------------------------------------------------------------|  
G|--------------4-4-7-7-4------------7--4--6--4-4-7-7-4-----------| 
D|7-5-7--7-5-7-------------7-7-7-5-----------------------7-7-7-5--|  
A|----------------------------------------------------------------|  
E|----------------------------------------------------------------|

bass run over verse once alone

repeat Verse (2 times)

repeat Chorus part 1 (2 times)

repeat Chorus Part 2 (2 times)

solo # 2 (goes over Chorus Part 2)
E|------------------------------------------------|
B|--------------------8-7---------------------8-7-|
G|--9-7---9-7---9-7---------9-7---9-7---9-7-------|
D|7-----7-----7-----7-----7-----7-----7-----7-----|
A|------------------------------------------------|
E|------------------------------------------------|
repeat Chorus Part 1 (2 times)

Bridge going into the outro (2 times alone and continue until end of song) 
E|--------------------------------|
B|-7777777-7777777-7777777-7777777|
G|-7777777-7777777-7777777-7777777|
D|-4444444-4444444-4444444-4444444|
A|--------------------------------|
E|--------------------------------|

Outro (4 times)
E|--------------|
B|--------------|
G|--------------|
D|7------7------|
A|5--4---5--4---|
E|---2------2---|

solo
E|------------------------------------|
B|------------------------------------|
G|7-7-9-9-7-7-6-----7-7-9-9-7-7-6-----|
D|------------------------------------|
A|5-5-7-7-5-5-4-----5-5-7-7-5-5-4-----|
E|------------------------------------|

END

Добавлено: 29.11.2014
Другие материалы по этой песне:
  • Аккорды и текст

Страница создана 29.02.2012
http://primanota.ru/hot-water-music/turnstile-chords.htm
Привет, Гость.
Предлагаем пройти революционный курс по гитаре.
Подарок от PrimaNota.Ru, забирай!