PrimaNota.ru - самый крупный в мире бесплатный архив песенных текстов, аккордов, табулатур и нот


Horace Silver - Barbara - таба, видео

Регистрация Запомнить меня
Войти через:  Facebook Google Twitter Vk Yandex Mail.ru

Horace Silver - Barbara - таба, видео

Печатать
Просмотров: 57
Авторы: Horace Silver

-------------------------------------------------------------------------------
                             Barbara - Horace Silver
-------------------------------------------------------------------------------
 Time: 3/4

  Bb7(b9)                                             Ab7(b9)
e|------------|------------|------------|------------|------------|------------|
B|------------|------------|------------|------------|------------|------------|
G|------------|------------|------------|------------|------------|------------|
D|--5-----5---|5-------5---|5-------5---|5---6---5---|3-----------|------------|
A|--7-----7---|7-------7---|7-------7---|7---8---7---|5-----------|------------|
E|------------|------------|------------|------------|------------|------------|

                            Bb7(b9)
e|------------|------------|------------|------------|------------|------------|
B|------------|------------|------------|------------|------------|------------|
G|------------|------------|------------|------------|------------|------------|
D|------------|------------|--5---5-----|5-------5---|5-------5---|5---6---8---|
A|------------|------------|--7---7-----|7-------7---|7-------7---|7---8---10--|
E|------------|------------|------------|------------|------------|------------|

  Bbm7/Eb                                             Abm7
e|------------|------------|------------|------------|------------|------------|
B|------------|------------|------------|------------|------------|------------|
G|------------|------------|------------|------------|------------|------------|
D|10----------|------------|------------|------------|--11----11--|11------11--|
A|11----------|------------|------------|------------|------------|------------|
E|------------|------------|------------|------------|------------|------------|

  Db7                       Gbmaj7
e|------------|------------|------------|------------|------------|------------|
B|------------|------------|------------|------------|------------|------------|
G|------------|----8-------|------------|------------|------------|------------|
D|11------11--|11----9-8---|------------|------------|------------|------------|
A|------------|------------|------------|------------|------------|------------|
E|------------|------------|------------|------------|------------|------------|

 |-------1st Ending------------------------------------------------------------| 
 |Fm7                       Bb7                       Gm7          C7(b9)      |
e|------------|------------|------------|------------|------------|------------|
B|------------|------------|------------|------------|------------|------------|
G|------------|------------|------------|----5-------|------------|------------|
D|--8-----8---|8-----8-----|8-----8-----|8-------6-5-|------------|------------|
A|------------|------------|------------|------------|------------|------------|
E|------------|------------|------------|------------|------------|------------|
 |Fm7          Bb7(b9)     |
e|------------|------------|
B|------------|------------|
G|------------|------------|
D|------------|------------|
A|------------|------------|
E|------------|------------|


 |-------2nd Ending------------------------------------------------------------| 
 |Fm7                                    Bb7          Gm7                      |
e|------------|------------|------------|------------|------------|------------|
B|------------|------------|------------|------------|------------|------------|
G|------------|------------|------------|----5-------|------------|------------|
D|--8-----8---|8-----8-----|8-----8-----|8-----------|--8-----8---|8-----8-----|
A|------------|------------|------------|------------|------------|------------|
E|------------|------------|------------|------------|------------|------------|
 |                                                                             |
 |C7(b9)                    F#m7         B7           Fm7          Bb7         |
e|------------|------------|------------|------------|------------|------------|
B|------------|------------|------------|------------|------------|------------|
G|------------|----5-------|------------|------------|------------|----5-------|
D|8-----8-----|8-----------|--9-----9---|9-----9-----|8-----8-----|8-----------|
A|------------|------------|------------|------------|------------|--------5---|
E|------------|------------|------------|------------|------------|------------|
 |                                                                             |
 |Ebmaj7       Dbmaj7       Bmaj7        Dbmaj7       Ebmaj7       Ebmaj7      |
e|------------|------------|------------|------------|------------|------------|
B|------------|------------|------------|------------|------------|------------|
G|------------|------------|------------|------------|------------|------------|
D|------------|------------|------------|------------|------------|------------|
A|6-----------|------------|------------|------------|------------|------------|
E|------------|------------|------------|------------|------------|------------|
 |Bmaj7        Dbmaj7      |
e|------------|------------|
B|------------|------------|
G|------------|------------|
D|------------|------------|
A|------------|------------|
E|------------|------------|
Добавлено: 14.11.2015
Другие материалы по этой песне:

Страница создана 04.07.2012
http://primanota.ru/horace-silver/barbara-chords.htm
Привет, Гость.
Предлагаем пройти революционный курс по гитаре.
Подарок от PrimaNota.Ru, забирай!