PrimaNota.ru - самый крупный в мире бесплатный архив песенных текстов, аккордов, табулатур и нот


Horace Silver - Lonely Woman - таба, видео

Регистрация Запомнить меня
Войти через:  Facebook Google Twitter Vk Yandex Mail.ru

Horace Silver - Lonely Woman - таба, видео

Печатать
Просмотров: 406
Уроки эстрадного вокала в Санкт-Петербурге
Авторы музыки: Horace Silver

Horace Silver - Lonely Woman
also played by Pat Metheny on Rejoicing


tabbed by Almir Nametak
mokra@starmo.co.uk
march 2011

E--------6-6-6--6-6----6-6-6--6-6--------6-6/7/6/5/6--9--6-4-6-6-6-5-4-3-2-1--------|
B--------7-7-7--5-5-5--4---4--7-7-0-0--9--------------6------7---7-6-5-4-3-2-4------|
G--------6-6-6--4-4-3--5---5--8-8------8--------------7------6---6-5-4-3-2-1-4------|
D----8==-8------6---2------------9----9---------------8------8---8-7-6-5-4-3-3------|
A--------6-----4----4-3------------9-8----------------------6----6-5-4-3-2-1--------|
E-----------6------2------3--7-----------------------6----------6------------1------|


E-----2/4-4-2------6-------------------------1/2-2/1-------------9-7-6-4--6---------|
B-----4/6-6-4----9---9/11/9/7-7/4----4-----4--------4-2----6-----6--------7---------|
G---------------7---------------6----4-----4----------3-3--6-7-8-7--------6---------|
D--------------6----------------5----3-----3----------3----5-----8---0----8---------|
A-----------------------------0=----------------------1---6--------------6----------|
E-------------6------------------5-4-3-2-1-----------------------6------------------|
Добавлено: 17.05.2012
Другие материалы по этой песне:
  • Аккорды и текст

Страница создана 17.05.2012
http://primanota.ru/horace-silver/lonely-woman-chords.htm
Привет, Гость.
Предлагаем пройти революционный курс по гитаре.
Подарок от PrimaNota.Ru, забирай!