PrimaNota.ru - самый крупный в мире бесплатный архив песенных текстов, аккордов, табулатур и нот


Hellyeah - Rotten To The Core - текст песни, таба, видео

Регистрация Запомнить меня
Войти через:  Facebook Google Twitter Vk Yandex Mail.ru

Hellyeah - Rotten To The Core - текст песни, таба, видео

Печатать
Просмотров: 220
                        - HellYeah - Rotten to the Core -
                         -------------------------------
Solo

Thats my version of the Solo!

C |---------------------------------------------------------|
G |-------------20b--20----20b-------------20~----18~-------|
D#|7/19---7/19----------19-----7/19---7/19---19~----17~-----|
A#|---------------------------------------------------------|
F |---------------------------------------------------------|
A#|---------------------------------------------------------|


     SUPER FAST!
C |----------------------------------------------------------|
G |----------------------------------------------------------|
D#|-19-17-19-17----17-16-17-16----16-14-16-14----14-13-14-13-|
A#|----------------------------------------------------------|
F |----------------------------------------------------------|
A#|----------------------------------------------------------|

     SUPER FAST!
C |----------------------------------------------------------|
G |----------------------------------------------------------|
D#|-19-17-19-17----17-16-17-16----19-17-19-17----20b---------|
A#|----------------------------------------------------------|
F |----------------------------------------------------------|
A#|----------------------------------------------------------|

    Normal speed!
C |-------------------------------------------|
G |---------------------------------18b---20b-|
D#|--------------------19---17-19-17------19b-|
A#|-------17----17-19-----17------------------|
F |-17-19----19-------------------------------|
A#|-------------------------------------------|

b = bend
/ = slide
Добавлено: 02.04.2012
Другие материалы по этой песне:

Страница создана 02.04.2012
http://primanota.ru/hellyeah/rotten-to-the-core-chords.htm
Привет, Гость.
Предлагаем пройти революционный курс по гитаре.
Подарок от PrimaNota.Ru, забирай!