PrimaNota.ru - самый крупный в мире бесплатный архив песенных текстов, аккордов, табулатур и нот


Hellyeah - Hush - таба, видео

Регистрация Запомнить меня
Войти через:  Facebook Google Twitter Vk Yandex Mail.ru

Hellyeah - Hush - таба, видео

Печатать
Просмотров: 115
Авторы: Kevin Churko, Chad Gray, Tom Maxwell, Vinnie Paul

Song: Hush
Artist: Hellyeah


I am not sure what tuning it is originally in but this is how I play it.. I don't have my guitar
with me at the moment so I know this is a little off. I will go back and edit this once I can play
along with the song.

[Intro]

 (capo 12th fret)
e|---------------------------------------------------------------------------------------|
B|----------------------------1-------------1--------------------------------------------|
G|-------------2----------2-------------2------------------------------------------------|
D|-----3---3----------3-----3-------3-----3----------------------------------------------|
A|---5---5---5------5---5---------5---5--------------------------------------------------|
D|-3--------------3-------------3--------------------------------------------------------|

[Intro]

 (without capo) I play it like this.
e|---------------------------------------------------------------------------------------|
B|-----------------------------------13---------------13---------------------------------|
G|----------------14-----------14---------------14---------------------------------------|
D|-----13---13------------13------15-------13------15------------------------------------|
A|---15---15---15-------15---15----------15---15-----------------------------------------|
D|-13-----------------13---------------13------------------------------------------------|


I play the intro part on this during the verse and do these fills below.


[Verse]

 ( You pray for quiet, Inside your head...) (the fear that's in your bones...)
e|--------------------------------------------------------------------|
B|--------------------------------------------------------------------|
G|--------------------------------------------------------------------|
D|----3---------5-0-----------3---------5-0-----------3------2/5\2----|
A|--5---5-3/5---------------5---5-3/5---------------5---5-3/5---------|
D|3-----------------------3-----------------------3-------------------|

[Pre Chorus] 

( The strangle holds, the insulting names..)(choke down onto the bed and thrash until..)
e|-----------------------------------------------------------------------------------------|
B|-----------------------------------------------------------------------------------------|
G|-------------------------------------------------------------------------------------12~-|
D|3-3-3-3-3-3-3-3--5-5--7-7-7-7-7-7-7-7--10-10--3-3-3-3-3-3-3-3--5-5--7-7-7-7-7-7-7-7--10~-|
A|3-3-3-3-3-3-3-3--5-5--7-7-7-7-7-7-7-7--10-10--3-3-3-3-3-3-3-3--5-5--7-7-7-7-7-7-7-7--10~-|
D|3-3-3-3-3-3-3-3--5-5--7-7-7-7-7-7-7-7--10-10--3-3-3-3-3-3-3-3--5-5--7-7-7-7-7-7-7-7--10~-|
  . . . . . . . .  . .  . . . . . . . .  .  .   . . . . . . . .  . .  . . . . . . . .


[Chorus]

 (Hell's where I was born! Hell's where I was raised..)
e|----------------------------------------------------------------------------------|
B|----------------------------------------------------------------------------------|
G|-5----5----5----5--14----14----14----14--9----9----9----9--7----7----7----7-------|
D|-3-XX-3-XX-3-XX-3--12-XX-12-XX-12-XX-12--7-XX-7-XX-7-XX-7--5-XX-5-XX-5-XX-5-------|
A|-3-XX-3-XX-3-XX-3--12-XX-12-XX-12-XX-12--7-XX-7-XX-7-XX-7--5-XX-5-XX-5-XX-5-------|
D|-3-XX-3-XX-3-XX-3--12-XX-12-XX-12-XX-12--7-XX-7-XX-7-XX-7--5-XX-5-XX-5-XX-5-------|

e|----------------------------------------------------------------------------------|
B|----------------------------------------------------------------------------------|
G|-5----5----5----5--14----14----14----14--9----9----9----9--7----7----7----7-------|
D|-3-XX-3-XX-3-XX-3--12-XX-12-XX-12-XX-12--7-XX-7-XX-7-XX-7--5-XX-5-XX-5-XX-5-------|
A|-3-XX-3-XX-3-XX-3--12-XX-12-XX-12-XX-12--7-XX-7-XX-7-XX-7--5-XX-5-XX-5-XX-5-------|
D|-3-XX-3-XX-3-XX-3--12-XX-12-XX-12-XX-12--7-XX-7-XX-7-XX-7--5-XX-5-XX-5-XX-5-------|

e|------------------------------------------------------------------------------|
B|------------------------------------------------------------------------------|
G|-5----5----5----5--------14~--------------------------------------------------|
D|-3-XX-3-XX-3-XX-3--------12~--------------------------------------------------|
A|-3-XX-3-XX-3-XX-3--------12~--------------------------------------------------|
D|-3-XX-3-XX-3-XX-3--------12~--------------------------------------------------|

[Verse]

 ( Retain the violence locked up your heart...) (You push everyone away from...)
e|--------------------------------------------------------------------|
B|--------------------------------------------------------------------|
G|--------------------------------------------------------------------|
D|----3---------5-------------3---------5-------------3------2/5\2----|
A|--5---5-3/5-----8---------5---5-3/5-----8---------5---5-3/5---------|
D|3-----------------------3-----------------------3-------------------|

[Pre Chorus]

 ( The reckoning the venom stings..)(Hold the gun up to my head I'll pull the trigger..)
e|-----------------------------------------------------------------------------------------|
B|-----------------------------------------------------------------------------------------|
G|-------------------------------------------------------------------------------------12~-|
D|3-3-3-3-3-3-3-3--5-5--7-7-7-7-7-7-7-7--10-10--3-3-3-3-3-3-3-3--5-5--7-7-7-7-7-7-7-7--10~-|
A|3-3-3-3-3-3-3-3--5-5--7-7-7-7-7-7-7-7--10-10--3-3-3-3-3-3-3-3--5-5--7-7-7-7-7-7-7-7--10~-|
D|3-3-3-3-3-3-3-3--5-5--7-7-7-7-7-7-7-7--10-10--3-3-3-3-3-3-3-3--5-5--7-7-7-7-7-7-7-7--10~-|
  . . . . . . . .  . .  . . . . . . . .  .  .   . . . . . . . .  . .  . . . . . . . .

[Chorus]

 (Hell's where I was born! Hell's where I was raised..)
e|----------------------------------------------------------------------------------|
B|----------------------------------------------------------------------------------|
G|-5----5----5----5--14----14----14----14--9----9----9----9--7----7----7----7-------|
D|-3-XX-3-XX-3-XX-3--12-XX-12-XX-12-XX-12--7-XX-7-XX-7-XX-7--5-XX-5-XX-5-XX-5-------|
A|-3-XX-3-XX-3-XX-3--12-XX-12-XX-12-XX-12--7-XX-7-XX-7-XX-7--5-XX-5-XX-5-XX-5-------|
D|-3-XX-3-XX-3-XX-3--12-XX-12-XX-12-XX-12--7-XX-7-XX-7-XX-7--5-XX-5-XX-5-XX-5-------|

e|----------------------------------------------------------------------------------|
B|----------------------------------------------------------------------------------|
G|-5----5----5----5--14----14----14----14--9----9----9----9--7----7----7----7-------|
D|-3-XX-3-XX-3-XX-3--12-XX-12-XX-12-XX-12--7-XX-7-XX-7-XX-7--5-XX-5-XX-5-XX-5-------|
A|-3-XX-3-XX-3-XX-3--12-XX-12-XX-12-XX-12--7-XX-7-XX-7-XX-7--5-XX-5-XX-5-XX-5-------|
D|-3-XX-3-XX-3-XX-3--12-XX-12-XX-12-XX-12--7-XX-7-XX-7-XX-7--5-XX-5-XX-5-XX-5-------|

e|------------------------------------------------------------------------------|
B|------------------------------------------------------------------------------|
G|-5----5----5----5--------14----14----14----14----14----14----14----14---------|
D|-3-XX-3-XX-3-XX-3--------12-XX-12-XX-12-XX-12-XX-12-XX-12-XX-12-XX-12---------|
A|-3-XX-3-XX-3-XX-3--------12-XX-12-XX-12-XX-12-XX-12-XX-12-XX-12-XX-12---------|
D|-3-XX-3-XX-3-XX-3--------12-XX-12-XX-12-XX-12-XX-12-XX-12-XX-12-XX-12---------|

[Bridge]

 Lead Guitar
e|-----------------------------------------------------------------------------------------|
B|-----------------------------------------------------------------------------------------|
G|-12-10/12--12-12-12-12--10-9/10--10-10-10-10-7-7-7-7--9-9-9-9--10-10-10-10--12-12-12-12--|
D|--X-X--X----X--X--X--X--X--X-X---X--X--X--X--X-X-X-X--X-X-X-X--X--X--X--X----X--X--X--X--|
A|-10-8/10---10-10-10-10--8--7/8---8--8--8--8--5-5-5-5--7-7-7-7--8--8--8--8---10-10-10-10--|
D|-----------------------------------------------------------------------------------------|

e|----------------------------------------------------------------------------------------------|
B|----------------------------------------------------------------------------------------------|
G|-12-10/12--12-12-12-12--10-9/10--10-10-10-10-7-7-7-7--9-9-9-9--10-10-10-10--12-12-12-12---7~--|
D|--X-X--X----X--X--X--X--X--X-X---X--X--X--X--X-X-X-X--X-X-X-X--X--X--X--X----X--X--X--X---X---|
A|-10-8/10---10-10-10-10--8--7/8---8--8--8--8--5-5-5-5--7-7-7-7--8--8--8--8---10-10-10-10---5~--|
D|----------------------------------------------------------------------------------------------|

Rhythm Guitar
e|---------------------------------------------------------------------------|
B|---------------------------------------------------------------------------|
G|15-15-15-15-15-15--17-17-17-17-17-17--7-7-7-7-7-7--9-9-9--10-10-10---------|
D|13-13-13-13-13-13--15-15-15-15-15-15--5-5-5-5-5-5--7-7-7--8--8--8----------|
A|13-13-13-13-13-13--15-15-15-15-15-15--5-5-5-5-5-5--7-7-7--8--8--8----------|
D|13-13-13-13-13-13--15-15-15-15-15-15--5-5-5-5-5-5--7-7-7--8--8--8----------|

e|---------------------------------------------------------------------------------------|
B|---------------------------------------------------------------------------------------|
G|15-15-15-15-15-15--17-17-17-17-17-17--7-7-7-7-7-7--9-9-9--10-10-10-12~----14-14-14-14--|
D|13-13-13-13-13-13--15-15-15-15-15-15--5-5-5-5-5-5--7-7-7--8--8--8--10~----12-12-12-12--|
A|13-13-13-13-13-13--15-15-15-15-15-15--5-5-5-5-5-5--7-7-7--8--8--8--10~----12-12-12-12--|
D|13-13-13-13-13-13--15-15-15-15-15-15--5-5-5-5-5-5--7-7-7--8--8--8--10~----12-12-12-12--|
                                                                             .  .  .  .
[Intro]

[Chorus]

 (Hell's where I was born! Hell's where I was raised..)
e|----------------------------------------------------------------------------------|
B|----------------------------------------------------------------------------------|
G|-5----5----5----5--14----14----14----14--9----9----9----9--7----7----7----7-------|
D|-3-XX-3-XX-3-XX-3--12-XX-12-XX-12-XX-12--7-XX-7-XX-7-XX-7--5-XX-5-XX-5-XX-5-------|
A|-3-XX-3-XX-3-XX-3--12-XX-12-XX-12-XX-12--7-XX-7-XX-7-XX-7--5-XX-5-XX-5-XX-5-------|
D|-3-XX-3-XX-3-XX-3--12-XX-12-XX-12-XX-12--7-XX-7-XX-7-XX-7--5-XX-5-XX-5-XX-5-------|

e|----------------------------------------------------------------------------------|
B|----------------------------------------------------------------------------------|
G|-5----5----5----5--14----14----14----14--9----9----9----9--7----7----7----7-------|
D|-3-XX-3-XX-3-XX-3--12-XX-12-XX-12-XX-12--7-XX-7-XX-7-XX-7--5-XX-5-XX-5-XX-5-------|
A|-3-XX-3-XX-3-XX-3--12-XX-12-XX-12-XX-12--7-XX-7-XX-7-XX-7--5-XX-5-XX-5-XX-5-------|
D|-3-XX-3-XX-3-XX-3--12-XX-12-XX-12-XX-12--7-XX-7-XX-7-XX-7--5-XX-5-XX-5-XX-5-------|

e|------------------------------------------------------------------------------|
B|------------------------------------------------------------------------------|
G|-5----5----5----5--------14~--------------------------------------------------|
D|-3-XX-3-XX-3-XX-3--------12~--------------------------------------------------|
A|-3-XX-3-XX-3-XX-3--------12~--------------------------------------------------|
D|-3-XX-3-XX-3-XX-3--------12~--------------------------------------------------|

[Outro]

e|-------------------x-------------------------------------------------|
B|-------------------x-------------------------------------------------|
G|-------------------2-------------------------------------------------|
D|----3---------5----3-------------------------------------------------|
A|--5---5-3/5-8---8--3-------------------------------------------------|
D|3------------------3-------------------------------------------------|
Добавлено: 01.06.2016
Вам также может быть интересно:
Другие материалы по этой песне:
  • Аккорды и текст

Страница создана 01.06.2016
http://primanota.ru/hellyeah/hush-chords.htm
Привет, Гость.
Предлагаем пройти революционный курс по гитаре.
Подарок от PrimaNota.Ru, забирай!