PrimaNota.ru - самый крупный в мире бесплатный архив песенных текстов, аккордов, табулатур и нот


Helloween - Judas - текст песни, таба, видео

Регистрация Запомнить меня
Войти через:  Facebook Google Twitter Vk Yandex Mail.ru

Helloween - Judas - текст песни, таба, видео

Печатать
Просмотров: 189
Авторы: Helloween

Judas
By Helloween
Tabbed by Gabriel Hidalgo

Intro
|---------------------------------------------------------------------------|
|---------------------------------------------------------------------------|
|---------------------------------------------------------------------------|
|-44444-----5---4----44444----5---4-------------5---4------------5---4h5p4--|
|-22222---2---2---2--22222--2---2---2--55555--2---2---2--77777-2---2--------|
|--------------------------------------33333-------------55555--------------|
Play twice and the let ring a B chord

Verse
|--------------------------------------------------------------------|
|--------------------------------------------------------------------|
|--------------------------------------------------------------------|
|-7-9-10-9-7-5--7-9-10-9-7-5--10-12-14-------------------------------|Guitar 1
|--------------------------------------14-12-10-12~------------------|
|--------------------------------------------------------------------|
|                                                                    |
|--------------------------------------------------------------------|
|--------------------------------------------------------------------|
|--------------------------------------------------------------------|
|--------------------------------------------------------------------|Guitar2
|-----------------------------3--5--7--------------------------------|
|-5-7-8--7-5-3--5-7-8--7-5-3-----------7--5--3--5~-------------------|

|--------------------------------------------------------------------|
|--------------------------------------------------------------------|
|-7-9-10-9-7-5--7-9-10-9-7-5--10-12-14-------------------------------|Guitar 1
|--------------------------------------14-12-10-12~------------------|
|--------------------------------------------------------------------|
|--------------------------------------------------------------------|
|                                                                    |
|--------------------------------------------------------------------|
|--------------------------------------------------------------------|
|--------------------------------------------------------------------|Guitar2
|-----------------------------3--5--7--------------------------------|
|-5-7-8--7-5-3--5-7-8--7-5-3-----------7--5--3--5~-------------------|
|--------------------------------------------------------------------|

Pre Chorus (Fight for freedom!...)

|----------Use slight PM and--------------|
|----------tremolo picking here-----------|
|----------10-7-9-5-7-4-5-2---------------|
|-9-9-9-9---------------------------------|X4
|-7-7-7-7---------------------------------|
|-----------------------------------------|

Chorus
|--------------------------------------------------------------------|
|--------------------------------------------------------------------|
|--------------------------------------------------------------------|
|-xx-4-xx-4-xx-4-xx-4------------------------------------------------------------|
|-xx-2-xx-2-xx-2-xx-2------------------------------------------------------------|
|---------------------3333-5555----------------------------------------------|
PM                    .... ....

After that, play the verse again (I think) and chorus; then the solos,
which I don't know how to play; then pick some A, play again pre chorus,
chorus. And end with this

|--------------------------------------------------------------------|
|--------------------------------------------------------------------|
|--------------------------------------------------------------------|
|--------------------------------------------------------------------|
|--9/7/9--4--5--9--7-let ring----------------------------------------|
|--7/5/7--2--3--7--5-------------------------------------------------|

As usual, you have to listen the song to get the timing.
That's basically it
Добавлено: 31.03.2012
Другие материалы по этой песне:

Страница создана 08.03.2012
http://primanota.ru/helloween/judas-chords.htm
Привет, Гость.
Предлагаем пройти революционный курс по гитаре.
Подарок от PrimaNota.Ru, забирай!