PrimaNota.ru - самый крупный в мире бесплатный архив песенных текстов, аккордов, табулатур и нот


Helloween - Just A Little Sign - текст песни, таба, бас-таба, видео

Регистрация Запомнить меня
Войти через:  Facebook Google Twitter Vk Yandex Mail.ru

Helloween - Just A Little Sign - текст песни, таба, бас-таба, видео

Печатать
Просмотров: 224
HELLOWEEN 
JUST A LITTLE SIGN
from the Rabbit Dont Come Easy record
tabed by "loveandtrust@pobox.sk"

Note: Hello there, this is the first single of the 2003 record and its
a really smashy speed metal stuff so prepare your wrists !!!

Intro:
  G5                                D/F#5
e---------------------------------|---------------------------------|
B---------------------------------|---------------------------------|
G---------------------------------|---------------------------------|
D-5-5-5-5-5-5-5-5-5-5-5-5-5-5-5-5-|-4-4-4-4-4-4-7-7-7-7-7-7-4-4-4-4-|
A---------------------------------|---------------------------------|
E---------------------------------|---------------------------------|

  E5                                B5 
e---------------------------------|---------------------------------|
B---------------------------------|---------------------------------|
G---------------------------------|---------------------------------|
D-5-5-5-5-5-5-5-5-5-5-5-5-5-5-5-5-|-4-4-4-4-4-4-5-5-5-5-5-5-7-7-7-7-|
A---------------------------------|---------------------------------|
E---------------------------------|---------------------------------|

  C5                                C5
e---------------------------------|---------------------------------|
B---------------------------------|---------------------------------|
G---------------------------------|---------------------------------|
D-2-2-2-2-2-2-2-2-2-2-2-2-2-2-2-2-|-2-2-2-2-2-2-4-4-4-4-4-4-5-5-5-5-|
A---------------------------------|---------------------------------|
E---------------------------------|---------------------------------|

  D5
e--------------------|-----------------||
B--------------------|-----------------||
D--------------------|-------4--5--7~~-||
G--------------------|-5--7------------||
D-5------7------9----|-----------------||
E--------------------|-----------------||

Main riff:
e----------------------------------|-----------------------||
B----------------------------------|-----------------------||
G-10\9---------14\9----------------|------------------(0)--||
D-10\9---------14\9---------3--2---|-0---2---3---2----(0)--||
A--8\7---------12\7---------3--2---|-0---2---3---2---------||
E------0-0-0-0------0-0-0-0--------|-----------------------|| 
       PM-----|     PM-----|        notes in brackets play only 1st time

Verse:
e---------------------------------|---------------------------------||
B---------------------------------|---------------------------------||
G---------------------------------|---------------------------------||
D---------------------------------|---------------------------------||
A-3-3-3-3-3-3-3-3-3-3-3-3-3-3-3-3-|-7-7-7-7-7-7-7-7-7-7-7-7-7-7-7-7-||
E---------------------------------|---------------------------------||
  PM-----------------------------|  PM-----------------------------|

End of verse:
e-----------||
B-----------||
G-9p7-7~~~--||
D-----------||
A-----------||
E-----------||

Chorus:
e---------------------------------|---------------------------------|
B---------------------------------|---------------------------------|
G---------------------------------|---------------------------------|
D-5-------------------------------|-4-------------------------------|
A-5-------------------------------|-5-------------------------------|
E-3-3-3-3-3-3-3-3-3-3-3-3-3-3-3-3-|-2-2-2-2-2-2-2-2-2-2-2-2-2-2-2-2-|
    PM---------------------------|    PM---------------------------|

e---------------------------------|---------------------------------|
B---------------------------------|---------------------------------|
G---------------------------------|---------------------------------|
D-2-------------------------------|-4-------------------------------|
A-2-------------------------------|-2-2-2-2-2-2-2-2-2-2-2-2-2-2-2-2-|
E-0-0-0-0-0-0-0-0-0-0-0-0-0-0-0-0-|---------------------------------|
    PM---------------------------|    PM---------------------------|

e---------------------------------|---------------------------------|
B---------------------------------|---------------------------------|
G---------------------------------|---------------------------------|
D-5-------------------------------|-5-------------------------------|
A-3-3-3-3-3-3-3-3-3-3-3-3-3-3-3-3-|-3-3-3-3-3-3-3-3-3-3-3-3-3-3-3-3-|
E---------------------------------|---------------------------------|
    PM---------------------------|    PM---------------------------|

e--------------------|-----------------||
B--------------------|-----------------||
G--------------------|-------4--5--7~~-||
D--------------------|-5--7------------||
A-5------7------9----|-----------------||
E--------------------|-----------------||

Solo part:                                     repeat             repeat
e--------|                      e--------------------|------------------|
B--------|                      B--------------------|------------------|
G-9~~~---|strum this chord,     G-9---9-11-12-11-9---|-7---7-9-11-9-7---|
D-9~~~---|then continue w/this: D--------------------|------------------|
A-7~~~---|                      A--------------------|------------------|
E-0~~~---|                      E--------------------|------------------|

Distorted guitar interlude:                                             6x
e-------------------------------------|-----------------------------------|
B-------------------------------------|-----------------------------------|
G-------------------------------------|-----------------------------------|
D-------------------------------------|-------------------7-7-----9-9-----|
A-7-7-9-9-10-10-9-9-7-7-9-9-10-10-9-9-|-7-7-9-9-10-10-7-7-----7-7-----7-7-|
E-------------------------------------|-----------------------------------|
  PM---------------------------------|  PM-------------------------------|

Guitar solo:
e----------------|----------------|----------------|----------------|
B-t8p0h5-\\\\\\\-|-t7p0h5-\\\\\\\-|-t8p0h5-\\\\\\\-|-t7p0h5-\\\\\\\-|
G----------------|----------------|----------------|----------------|
D----------------|----------------|----------------|----------------|
A----------------|----------------|----------------|----------------|
E----------------|----------------|----------------|----------------|
  \ - repeat previous measure

e-----------------|-----------------|----------------|---------------------|
B-t10p0h5-\\\\\\\-|-t10p0h5-\\\\\\\-|-t8p0h5-\\\\\\\-|-t12p0h5-\-t10p0h5-\-|
G-----------------|-----------------|----------------|---------------------|
D-----------------|-----------------|----------------|---------------------|
A-----------------|-----------------|----------------|---------------------|
E-----------------|-----------------|----------------|---------------------|

e----------------|----------------|----------------|----------------|
B-t8p0h5-\\\\\\\-|-t7p0h5-\\\\\\\-|-t8p0h5-\\\\\\\-|-t7p0h5-\\\\\\\-|
G----------------|----------------|----------------|----------------|
D----------------|----------------|----------------|----------------|
A----------------|----------------|----------------|----------------|
E----------------|----------------|----------------|----------------|

e-----------------|-----------------|-----------------|-----------------|
B-t10p0h5-\\\\\\\-|-t10p0h5-\\\\\\\-|-t12p0h5-\\\\\\\-|-t15p0h5-\\\\\\\-|
G-----------------|-----------------|-----------------|-----------------|
D-----------------|-----------------|-----------------|-----------------|
A-----------------|-----------------|-----------------|-----------------|
E-----------------|-----------------|-----------------|-----------------|

e----------------------------------------------|
B-15b(17)-15b(17)---15b(17)-15b(17)---12-15p12-|
G----------------------------------------------|
D----------------------------------------------|
A----------------------------------------------|
E----------------------------------------------|

e-------------15p12------------------------||
B-15p12----12------------------------------||
G-------14----------14b(16)r(14)p12--------||
D-----------------------------------14~~---||
A------------------------------------------||
E------------------------------------------||

Ending:
e----------------------------|-----------------------||
B----------------------------|-----------------------||
G----------------------------|-----------------------||
D----------------------------|-----------------------||
A-2-2--2-2--2-2--2-2--2-2----|-2-2--2-2--2-2--2-2----||
E-0-0--0-0--0-0--0-0--0-0----|-0-0--0-0--0-0--0-0----||
  PM---------------------|     PM----------------|

Its time for just a little sign...
Happy happy Helloween!!!
Добавлено: 04.03.2012
Другие материалы по этой песне:

Страница создана 01.03.2012
http://primanota.ru/helloween/just-a-little-sign-chords.htm
Привет, Гость.
Предлагаем пройти революционный курс по гитаре.
Подарок от PrimaNota.Ru, забирай!