PrimaNota.ru - самый крупный в мире бесплатный архив песенных текстов, аккордов, табулатур и нот


Heat - Never Let Go - таба, видео

Регистрация Запомнить меня
Войти через:  Facebook Google Twitter Vk Yandex Mail.ru

Heat - Never Let Go - таба, видео

Печатать
Просмотров: 127
well this is my first tab so enjoy :)

Intro
e----------------------------------------------------------------------------|
B----------------------------------------------------------------------------|
G----------------------5--5--------------------------------------------------|
D-----7--------5--7--5--5--7--5--7-----------7--------5--7------------5------|
A-----7--------5--7--3--3--7--5--7-----------7--------5--7--------7-----5----|
E-----5---0---3--5---------5--3--5-----------5---0---3--5--------------------|

e-----------------------------------------|
B-----------------------------------------|
G-------------------5--5------------------|
D--7--------5--7--5--5--7--5--7-----------|
A--7--------5--7--3--3--7--5--7-----------|
E--5---0---3--5---------5--3--5-----------|


pre chorus
e----------------------------------------------------------------|
B----------------------------------------------------------------|
G-------------5---5----------------------------------------------|
D----3--3---5---5----5---5--5---5---5--5--5--5-------------------|
A ---3--3--3---3----5---5--5---5---5--5--5--5--------------------|
E---1--1-----------3---3--3---3---3--3--3--3---------------------|

e----------------------------------------------------------------|
B----------------------------------------------------------------|
G-------------5---5----------------------------------------------|
D----3--3---5---5----5--------5-------5------5-------------------|
A ---3--3--3---3----5--------5-------5------5--------------------|
E---1--1-----------3--------3-------3------3---------------------|


chorus
e----------------------------------------------------------------|
B-----------------------------------------x2---------------------|
G------------------------------5------------------end on---------|
D------7------5-------3-----5---5---------------------------3----|
A-----7------5-------3-----3---5---------------------------3-----|
E----5------3-------1---------3---------------------------1------|
  ||
  \/
Intro
pre chorus
chorus
solo
chorus
guitar fill in
chours
Intro
Добавлено: 28.05.2012
Другие материалы по этой песне:
  • Аккорды и текст

Страница создана 28.05.2012
http://primanota.ru/heat/never-let-go-chords.htm
Привет, Гость.
Предлагаем пройти революционный курс по гитаре.
Подарок от PrimaNota.Ru, забирай!