PrimaNota.ru - самый крупный в мире бесплатный архив песенных текстов, аккордов, табулатур и нот


Heat - Mannequin Show - таба, видео

Регистрация Запомнить меня
Войти через:  Facebook Google Twitter Vk Yandex Mail.ru

Heat - Mannequin Show - таба, видео

Печатать
Просмотров: 72
Mannequin Show - Heat
Tabbed By: Derek Schmidt
Tuning Standard

Video of my tab - http://www.hammerheadrocks.com/#!dereks-page/c11nt

Intro:
e----------------|-----------------------------------------------------------------------|
B----------------|-----------------------------------------------------------------------|
G----------------|----------4---4-----------7--7-7-----------4-----4---5--4--------------|
A--------5--2--5-|--2---2---4---4---5---5---7--7-7---2---2---4-----4---5--4--2--5--2--5--|
D--------5--2--5-|--2---2---2---2---5---5---5--5-5---2---2---2---x-2---3--2--0--5--2--5--|
E-(12)\--3--0--3-|--0---0-----------3---3------------0---0----------------------3--0--3--| X2

Verse:
e-------------------------------------------------------------------------|
B-------------------------------------------------------------------------|
G---------------------------------------------------4---5--4--------------|
D--2-2-2-2-2-2-2-2-2-2-2-2-2-2-2-2-2-2-2-2-2-2-2-2--4---5--4--2--5--2--5--|
A--2-2-2-2-2-2-2-2-2-2-2-2-2-2-2-2-2-2-2-2-2-2-2-2--2---3--2--0--5--2--5--|
E--0-0-0-0-0-0-0-0-0-0-0-0-0-0-0-0-0-0-0-0-0-0-0-0---------------3--0--3--| X2
 PM===============================================|
                       /24 notes\

Pre Chorus:
e----------------------------------------------|
B----------------------------------------------|
G--5----5--3----3--5------4--5--4--------------|
D--5----5--2----2--5------4--5--4--2--5--2--5--|
A--3----3--0----0--3------2--3--2--0--5--2--5--|
E-------------------------------------3--0--3--|

Chorus:
e-----------------------------------------------------------------|
B--------------------------3---3-----------3---3-----------3---3--|
G----------4---4-----------2---2-----------2---2---5---5---2---2--|
D--2---2---4---4---5---5---0---0---5---5---0---0---5---5---0---0--|
A--2---2---2---2---5---5-----------5---5-----------3---3----------|
E--0---0-----------3---3-----------3---3--------------------------| X2

Post Chorus: (Same as Intro)
e-----------------------------------------------------------------------|
B-----------------------------------------------------------------------|
G----------4---4-----------7--7-7-----------4-----4---5--4--------------|
A--2---2---4---4---5---5---7--7-7---2---2---4-----4---5--4--2--5--2--5--|
D--2---2---2---2---5---5---5--5-5---2---2---2---x-2---3--2--0--5--2--5--|
E--0---0-----------3---3------------0---0----------------------3--0--3--|

Verse

Pre Chorus

Chorus

Post Chorus

Bridge:
e------------------------------------------------------------------|
B---------------------------3---3-----------3---3-----------3---3--|
G-----------5---5-----------2---2-----------2---2---5---5---2---2--|
D--2---2----5---5---5---5---0---0---5---5---0---0---5---5---0---0--|
A--2---2----3---3---5---5-----------5---5-----------3---3----------|
E--0---0------------3---3-----------3---3--------------------------| X2

Chorus till the end

Добавлено: 18.11.2015
Вам также может быть интересно:
Другие материалы по этой песне:
  • Аккорды и текст

Страница создана 18.11.2015
http://primanota.ru/heat/mannequin-show-chords.htm
Привет, Гость.
Предлагаем пройти революционный курс по гитаре.
Подарок от PrimaNota.Ru, забирай!