PrimaNota.ru - самый крупный в мире бесплатный архив песенных текстов, аккордов, табулатур и нот


Heat - Point Of No Return - таба, видео

Регистрация Запомнить меня
Войти через:  Facebook Google Twitter Vk Yandex Mail.ru

Heat - Point Of No Return - таба, видео

Печатать
Просмотров: 75
Point Of No Return - H.E.A.T
Tuning - Standard 
Tabbed by Derek Schmidt

check out my page http://www.hammerheadrocks.com/#!dereks-page/c11nt

Intro
e--3------6----------8-----8----------|
B----3------3---3------6-----6---6----|
G------0------0---0------0-----0---0--|
D-------------------------------------|
A-------------------------------------|
E-------------------------------------| X3

e---------1----------------1----------|
B----1------1---1------1-----1---1----|
G--3---3------3---3--2---2-----1---2--|
D-------------------------------------|
A-------------------------------------|
E-------------------------------------|


Then do this when the band kicks in
e-------------------|
B-------------------|
G------3-----5------|
D--5---3-----5---3--|
A--5---1-----3---3--|
E--3-------------1--|

Verse
e----------------------------|
B----------------------------|
G-------3----3--5------------|
D--5----3----3--5----3----3--|
A--5--x-1--x-1--3----3----3--|
E--3--x------------x-1--x-1--|

Lick right before vocals
e-----------|
B-----------|
G-----------|
D--0--------|
A----3p1----|
E--------3--|

Interlude thing
e-----------------------------|
B-----------------------------|
G-----------------------------|
D---7----7----7-------7----7--|
A---7----7----7--8----7----7--|
E---5--x-5--x-5--5--x-5--x-5--| X2

Back to verse


Pre chorus
e-----------------------------------|-------------------------|
B--4-4-4-4---4-4-4-4----------------|-4-4-4-4---4-4-4-4-------|
G--3-3-3-3---3-3-3-3----------------|-3-3-3-3---3-3-3-3-------|
D--1-1-1-1---1-1-1-1----------------|-1-1-1-1---1-1-1-1----3--|
A-----------------------------------|----------------------3--|
E---------------------(1)/(12)\(1)--|----------------------1--|
                 slide around these notes


Chorus
e---------------------------------------------------------|
B---------------4---4--------------------4----------------|
G---------------3---3--------------------3----------------|
D--5--3-5---3---1---1---3---5--3-5---3---1---3---5---3-3--|
A--5--3-5---3-----------3---5--3-5---3-------3---5---3-3--|
E--3--1-3---1-----------1---3--1-3---1-------1---3---1-1--|

Lick after chorus
e-----------|
B-----------|
G-----------|
D-----------|
A------1----|
E--3-1---3--|

Solo after chorus
e---------------------------------------------------------------|---------|   |--------|
B-18b20--18b20--15h18p15-----15---------------------------------|---------|   |--------|
G-------------------------17----17b19r17p15-17b19---5b7r5p3-5b7-|-3h5p3---|   |--------|
D---------------------------------------------------------------|-------5-|   |-5p3h5--|
A---------------------------------------------------------------|---------|   |--------|
E---------------------------------------------------------------|---------|X3 |--------|


Verse


Pre Chorus


Chorus


Bridge other guitar does the clean intro
e--------|
B--------|
G--------|
D--5==---|
A--5==---|
E--3==---|


Then this comes after
e--------------------------------------------------------------------------|
B--------------------------------------------------------------------------|
G--------------------------------------------------------------------------|
D--5-5----------5---5-5---------------5-5-------5---5--5-5----5--5-5---5-5-|
A--5-5----------5---5-5---------------5-5-------5---5--5-5----5--5-5---5-5-|
E--3-3----------3---3-3---------------3-3-------3---3--3-3----3--3-3---3-3-|
The rhythm is something like this but your gonna need to listen to song to get it down


e----------------------------------------------------------|     |-------|
B----------------------------------------------------------|     |-------|
G----------------------------------------------------------|     |-------|
D---5-5-5-5---5-5-5-5-----5-5-5-5---5-5-5-5----------------|     |--3=---|
A---5-5-5-5---5-5-5-5-----5-5-5-5---5-5-5-5----------------|     |--3=---|
E---3-3-3-3---3-3-3-3-----3-3-3-3---3-3-3-3--(1)/(12)\(1)--| X4  |--1=---|

Solo
e---------------------------------------------------------------------------|
B-------------11--------------------11h13b15-13-------11-11--13b15r13p11-13-|
G-------10h12-----12---------10h12--------------10h12-----------------------|
D-10h12----------------10h12------------------------------------------------|
A---------------------------------------------------------------------------|
E---------------------------------------------------------------------------|

e-10h13p10-13b15--11h13p11-10h11p10--11b13--|
B-------------------------------------------|
G-------------------------------------------|
D-------------------------------------------|
A-------------------------------------------|
E-------------------------------------------|

e--10h11p10----10----------------------------------------------------------|
B-----------13----13p11p10h11p10----10-------------------------------------|
G--------------------------------12----12p10-------------------------------|
D---------------------------------------------13-12-10---------------------|
A-------------------------------------------------------13-12-10-----------|
E----------------------------------------------------------------13-11-10--|

e-----------------------------------------------------------------|
B-----------------------------------------------------------------|
G---------------------------------------------------------10h12v--|
D--------------------------------------10h12h13-10h12h13----------|
A--------------------10h12h13-10h12h13----------------------------|
E--10h11h13-10h11h13----------------------------------------------|

e--------------------|
B--/11-10------------|
G---------12p10-/12--|
D--------------------|
A--------------------|
E--------------------|



Chorus
Добавлено: 27.05.2016
Другие материалы по этой песне:
  • Аккорды и текст

Страница создана 26.05.2016
http://primanota.ru/heat/point-of-no-return-chords.htm
Привет, Гость.
Предлагаем пройти революционный курс по гитаре.
Подарок от PrimaNota.Ru, забирай!