PrimaNota.ru - самый крупный в мире бесплатный архив песенных текстов, аккордов, табулатур и нот


Hatebreed - Put It To The Torch - текст песни, таба, видео

Регистрация Запомнить меня
Войти через:  Facebook Google Twitter Vk Yandex Mail.ru

Hatebreed - Put It To The Torch - текст песни, таба, видео

Печатать
Просмотров: 130
                                 Hatebreed   
                             Put It To The Torch
                                  
Guitars tuned to drop C


|----------------------------|----------------------------------------------------|
|----------------------------|----------------------------------------------------|
|----------------------------|----------------------------------------------------|
|-------------------6-6------|----------------------------------------------------|
|-3-3---3-3---3-3---4-4---0--|-5--------6-5-3----------6-5-3----------------------|
|-3-3-0-3-3-0-3-3-0-----3-0--|-5-5-55-5-6-5-3-5-5-55-5-6-5-3-66-6-66-6-99-9-99-9--|

|------------------------|-------------------------------|
|------------------------|-------------------------------|
|------------------------|-------------------------------|
|-------------10---------|--------------------6--6-------|
|-6----3---6--8----0---0-|--3-3---3-3---3-3---4--4----0--|
|---00-3-0-6-----0-0-0-0-|--3-3-0-3-3-0-3-3-0------3--0--|

|---------------------------------------------------------------------|
|---------------------------------------------------------------------|
|---------------------------------------------------------------------|
|--7-5/-8---------7-5/-10---------7-5/-8---------8-7---11-10----------|
|--5-3/-6---------5-3/-8----------5-3/-6---------6-5---9--8-----------|
|---------0-0-0-0--------0-0-0-0---------0-0-0-0-----0-------3-0------|

************************************

| /   slide up
| \   slide down
| h   hammer-on
| p   pull-off
| ~   vibrato
| +   harmonic
| x   Mute note
| b   Bend
| pb  Pre-bend
| br  Bend release
| pbr Pre-bend release
| brb Bend release bend

************************************
Добавлено: 07.08.2015
Другие материалы по этой песне:

Страница создана 21.07.2013
http://primanota.ru/hatebreed/put-it-to-the-torch-chords.htm
Привет, Гость.
Предлагаем пройти революционный курс по гитаре.
Подарок от PrimaNota.Ru, забирай!