PrimaNota.ru - самый крупный в мире бесплатный архив песенных текстов, аккордов, табулатур и нот


Hatebreed - Hell In A Heartbeat - таба, видео

Регистрация Запомнить меня
Войти через:  Facebook Google Twitter Vk Yandex Mail.ru

Hatebreed - Hell In A Heartbeat - таба, видео

Печатать
Просмотров: 85
Уроки эстрадного вокала в Санкт-Петербурге
I wish I could tab more guys But I have the intro down.
Seeing as there are no other tabs for this song, it'll be a start for someone to
come down the road and improve it.

Hatebreed - Hell in a Heartbeat
Tuning Drop B

Intro
Gtr1
e-------------------------|  Repeat about 10 times
b-------------------------|  Guitar2 fades in about after 1
g-------------------------|
d------------------------4|
a---5---5---5/6-----5/6---|
e-0---0---0-------0-------|


Gtr2 Fades in after intro is played once.
e---------------------------|
b---------------------------|
g---------------------------|
d---------0-------------4-2-|
a-0-0-----0-------------4-2-|
e-0-0-----0-------------4-2-|

Same as Riff one just a little change.
Gtr1
e--------------------------------|
b--------------------------------|
g--------------------------------|
d----------------------4-(4)-----|
a---5---5---5/6---5/6-------5----|
e-0---0---0-----0--------------0-|


Gtr2
e--------------------------------|
b--------------------------------|
g--------------------------------|
d---------0------------4-(4)-5-0-|
a-0-------0------------4-(4)-5-0-|
e-0-------0------------4-(4)-5-0-|


Alright to the main riff.
Gtr1
e-----------------------------------------------------|
b-----------------------------------------------------|
g-----------------------------------------------------|
d-0---------------------------------------------------|
a-0---------------------------------------------------|
e-0---------------------------------------------------|

Gtr2
e------------------------------------------------------|
b------------------------------------------------------|
g------------------------------------------------------|
d----------------------------------------------3h6p3---|
a-5-----------------------------------3h6p3-2--------2-|
e-0------------0-0-0-0-000-0-000-0-00------------------|


Gtr1
e-----------------------------------------------------|
b-----------------------------------------------------|
g-----------------------------------------------------|
d-----------------------------------------------------|
a-----------------------------------------------------|
e-----------------------------------------------------|


Gtr2
e-----------------------------------------|
b-----------------------------------------|
g-----------------------------------------|
d---------------------------------2h5p2-1-|
a------------------------2h5p2-1----------|
e-0-0-0-0-000-0-000-0-00------------------|

Well that's all I have. Instead of voting it out because a part may be wrong or it
doesn't look right try it first, and if you have a correction, post it so I can
get it as accurate as possible.
Добавлено: 08.08.2013
Другие материалы по этой песне:
  • Аккорды и текст

Страница создана 08.08.2013
http://primanota.ru/hatebreed/hell-in-a-heartbeat-chords.htm
Привет, Гость.
Предлагаем пройти революционный курс по гитаре.
Подарок от PrimaNota.Ru, забирай!