PrimaNota.ru - самый крупный в мире бесплатный архив песенных текстов, аккордов, табулатур и нот


Hatebreed - Every Lasting Scar - текст песни, таба, видео

Регистрация Запомнить меня
Войти через:  Facebook Google Twitter Vk Yandex Mail.ru

Hatebreed - Every Lasting Scar - текст песни, таба, видео

Печатать
Просмотров: 317
-------------------------------------------------------------------------------
			  Every Lasting Scar - Hatebreed
-------------------------------------------------------------------------------

ARTIST   : Hatebreed
SONG     : Every Lasting Scar
ALBUM    : Hatebreed
TABBED BY: h8urlife
C-TUNING : C-F-Bb-Eb-G-C




Intro:

C#|-------------------------------------------------------------|
G#|-------------------------------------------------------------|
E#|-------------------------------------------------------------|
B#|---------------------------------------------9-9-9-9-9-9-9-9-|
F#|-2-------------------------------------------7-7-7-7-7-7-7-7-|
C#|-0-0-0-0-0-0-0-0-0-0-0-0-0-0-0-0-0-0-0-0-0-0-----------------|
      . . . . . . . . . . . . . . . . . . . . . 





Chorus:

C#|--------------------------------------------------------|
G#|--------------------------------------------------------|
E#|--------------------------------------------------------|
B#|-------------5--5--10-9--7------------------------------|
F#|-2-----------3--3--8--7--5--5-5-5-5-5-5--5-----5-3-5-2--|
C#|-0-0-0-0-0-0--------------------------3--3-3-3-3-1-3-0--|
      . . . . .                . . . . .      . .   





Verse:

C#|---------------------------------------------------------|
G#|---------------------------------------------------------|
E#|---------------------------------------------------------|
B#|------------------------------10-9--10-9--10-------------|
F#|-2-----------5--8-------------8--7--8--7--8------5-3-5-2-|
C#|-0-0-0-0-0-0-3--6-0-0-0-0-0------------------0-0-3-1-3-0-|
      . . . . .      . . . . .                  . .





C#|-----------------------------------------------------------|
G#|-----------------------------------------------------------|
E#|-----------------------------------------------------------|
B#|-------------7--9----------7-9-12-12-12-12-12-7-7-7--7-7-7-|
F#|-2-----------5--7----------5-7-10-10-10-10-10-5-5-5--5-5-5-|
C#|-0-0-0-0-0-0-------0-0-0-0---------------------------------|
      . . . . .       . . . . 





Chorus:

C#|--------------------------------------------------------|
G#|--------------------------------------------------------|
E#|--------------------------------------------------------|
B#|-------------5--5--10-9--7------------------------------|
F#|-2-----------3--3--8--7--5--5-5-5-5-5-5--5-----5-3-5-2--|
C#|-0-0-0-0-0-0--------------------------3--3-3-3-3-1-3-0--|
      . . . . .                . . . . .      . .   





Verse:

C#|---------------------------------------------------------|
G#|---------------------------------------------------------|
E#|---------------------------------------------------------|
B#|------------------------------10-9--10-9--10-------------|
F#|-2-----------5--8-------------8--7--8--7--8------5-3-5-2-|
C#|-0-0-0-0-0-0-3--6-0-0-0-0-0------------------0-0-3-1-3-0-|
      . . . . .      . . . . .                  . .




C#|-----------------------------------------------------------|
G#|-----------------------------------------------------------|
E#|-----------------------------------------------------------|
B#|-------------7--9----------7-9-12-12-12-12-12-7-7-7--7-7-7-|
F#|-2-----------5--7----------5-7-10-10-10-10-10-5-5-5--5-5-5-|
C#|-0-0-0-0-0-0-------0-0-0-0---------------------------------|
      . . . . .       . . . . 





Before Break:

C#|-------------------------------------------------------------|
G#|-------------------------------------------------------------|
E#|-------------------------------------------------------------|
B#|-------------------------------------------------------------|
F#|-2-----------------------------------------------------------|
C#|-0-0-0-0-0-0-0-0-0-0-0-0-0-0-0-0-0-0-0-0-0-0-0-0-0-0-0-0-0-0-|
      . . . . . . . . . . . . . . . . . . . . . . . . . . . . .   


C#|---------------------------------------------------|
G#|---------------------------------------------------|
E#|---------------------------------------------------|
B#|-9-----------------------------9---9---9---9---9-9-|
F#|-7-7-7-7-7-7-7-7-7-7-7-7-7-7-7-7-7-7-7-7-7-7-7-7-7-|
C#|---------------------------------------------------|
      . . . . . . . . . . . . . .   .   .   .   .       
                



Breakdown:

C#|----------------------------------------------------|
G#|----------------------------------------------------|
E#|----------------------------------------------------|
B#|----------------------------------------------------|
F#|---------8-------------5---------8---8-----------5--|
C#|-0-0-0-0-6---0-0-1-4-3-3---0-0-0-6-0-6-0-0-1-4-3-3--|
    . . . .     . . . . .     . . .   .   . . . . .     




Chorus:

C#|--------------------------------------------------------|
G#|--------------------------------------------------------|
E#|--------------------------------------------------------|
B#|-------------5--5--10-9--7------------------------------|
F#|-2-----------3--3--8--7--5--5-5-5-5-5-5--5-----5-3-5-2--|
C#|-0-0-0-0-0-0--------------------------3--3-3-3-3-1-3-0--|
      . . . . .                . . . . .      . .   




Outro:

C#|---------------------------------------------------------|
G#|---------------------------------------------------------|
E#|---------------------------------------------------------|
B#|------------------------------10-9--10-9--10-------------|
F#|-2-----------5--8-------------8--7--8--7--8------5-3-5-2-|
C#|-0-0-0-0-0-0-3--6-0-0-0-0-0------------------0-0-3-1-3-0-|
      . . . . .      . . . . .                  . .





Hatebeed rulez!!!
Добавлено: 12.11.2013
Другие материалы по этой песне:
  • Аккорды и текст

Страница создана 12.11.2013
http://primanota.ru/hatebreed/every-lasting-scar-chords.htm
Привет, Гость.
Предлагаем пройти революционный курс по гитаре.
Подарок от PrimaNota.Ru, забирай!