PrimaNota.ru - самый крупный в мире бесплатный архив песенных текстов, аккордов, табулатур и нот


Harry Gregson-williams - Metal Gear Saga - таба, видео

Регистрация Запомнить меня
Войти через:  Facebook Google Twitter Vk Yandex Mail.ru

Harry Gregson-williams - Metal Gear Saga - таба, видео

Печатать
Просмотров: 402
Авторы музыки: Harry Gregson-Williams

Metal Gear Saga, Harry Gregson-Williams

This is my first tab so if it sucks thats why. This tab is standard tuning also.

h=hammer-on
p=pull-off
\=slide down
/=slide up
                   This is distorted here.
e-------------------------------------------------------|
B-------------------------------------------10--10--8---|
G---7--9--10-----10--10--9-----7--9--10--7--------------|
D-------------7-----------------------------------------|
A-------------------------------------------------------|
E-------------------------------------------------------|

|---------------------10--------------------------------|
|-----------------10---------8--6--8--10----------------|
|---10--9--7--10----------7---------------7-7-6---------|
|-------------------------------------------------------|
|-------------------------------------------------------|
|-------------------------------------------------------|x2

|-------------------------------------------------------|
|---------------------------------------5---------------|
|---------------6--6--4--------4--6--------4--6---------|
|---4--6--7--4--------------7--------7------------------|
|-------------------------------------------------------|
|-------------------------------------------------------|

|-------------------7-----------------------------------|
|----------------7--------------------------------------|
|----7--6--4--7--------4---9--7--9--11------------------|
|---------------------------------------9--9--8---------|
|-------------------------------------------------------|
|-------------------------------------------------------|

|-------------------------------------------------------|
|-------------------------------------------------------|
|---4h6--6h7--4h6--6h7--6--7--6h7--7h9--6h7--7h9--------|
|-------------------------------------------------------|
|-------------------------------------------------------|
|-------------------------------------------------------|

|-------------------------------------------------------|
|-------------------------------------------------------|
|---7--9--4h6--6h7--4h6--6h7--6--7--7h9--9h10-----------|
|-------------------------------------------------------|
|-------------------------------------------------------|
|-------------------------------------------------------|

|-------------------------------------------------------|
|-------------------------------------------------------|
|---7h9--9h10--9--10--10h12--12h13--10h12--12h13--------|
|-------------------------------------------------------|
|-------------------------------------------------------|
|-------------------------------------------------------|



|----------------------------------------14-------------|
|-------------------------------------------17--17\15---|
|--12--13-----------------------------------------------|
|-------------------------------12-14-15-16-------------|
|----------13h14--14-14h16--16--------------------------|
|-------------------------------------------------------|

|------||-----------------------------------------------|
|--14--||------------------------------------7-7--5-----|
|------||--4--6--7-----7--7--6---4--6--7--4-------------|
|------||-----------4-----------------------------------|Repeat
|------||-----------------------------------------------|between
|------||-----------------------------------------------|double
         1:59                                               bars
|-------------------7----------------------------||-----|2x
|----------------7----------5--3--5--7-----------||-----|
|----7--6--4--7--------4----------------4-4--3---||-----|
|------------------------------------------------||-----|
|------------------------------------------------||-----|
|------------------------------------------------||-----|

|-------------------------------------------------------|
|-------------------------------------------------------|
|---4h6--6h7--4h6--6h7--6--7--7h9--9h10--7h9--9h10------|
|-------------------------------------------------------|
|-------------------------------------------------------|
|-------------------------------------------------------|

|-------------------------------------------------------|
|-------------------------------------------------------|
|----9--10---10h12--12h13--10h12--12h13--12--13---------|
|-------------------------------------------------------|
|-------------------------------------------------------|
|-------------------------------------------------------|

|--------------------------10--12--13--14--14-14--------|
|----11h12--12--12h14--14-------------------------------|
|-------------------------------------------------------|
|-------------------------------------------------------|
|-------------------------------------------------------|
|-------------------------------------------------------|

|----14-14--14-14----------10--12--13--14---------------|
|------------------12--14-------------------------------|
|-------------------------------------------------------|
|-------------------------------------------------------|
|-------------------------------------------------------|
|-------------------------------------------------------|
         |It's all Clean from here on out.
|--------|----------------------------------------------|
|--14----|-------------------------------------7--5-----|
|--------|-4--6--7-----7--7--6---4--6--7--4--7----------|
|--------|----------4-----------------------------------|
|--------|----------------------------------------------|
|--------|----------------------------------------------|

|-------------------7-----------------------------------|
|----------------7----------5--3--5--7------------------|
|----7--6--4--7--------4----------------4-4--3----------|
|-------------------------------------------------------|
|-------------------------------------------------------|
|-------------------------------------------------------|

|---------------------------------------------10--------|
|---------------------------------10--12---------10-----|
|----9--11--12-----12-12--11--12----------12------------|
|---------------9---------------------------------------|
|-------------------------------------------------------|
|-------------------------------------------------------|

|------------------------12--17------10--8--10--12------|
|---12---13--12--10--13----------10---------------------|
|-------------------------------------------------------|
|-------------------------------------------------------|
|-------------------------------------------------------|
|-------------------------------------------------------|

|-------------------------------------------------------|
|---10-10--9--------------------------------8--10-------|
|--------------7--9--10-----10--10--9---10---------10---|
|------------------------7------------------------------|
|-------------------------------------------------------|
|-------------------------------------------------------|

|---8-------------------------10--15-----8--6--8--10----|
|------8--10---11--10--8--11----------8-----------------|
|-------------------------------------------------------|
|-------------------------------------------------------|
|-------------------------------------------------------|
|-------------------------------------------------------|

|-------------------11--15--13--8---8------8--12--13----|
|---8-8--6---8--11----------------------8---------------|
|-------------------------------------------------------|
|-------------------------------------------------------|
|-------------------------------------------------------|
|-------------------------------------------------------|

|---15--13--11--10--8-----------------------------------|
|----------------------11--10--6--8---------------------|
|-------------------------------------------------------|
|-------------------------------------------------------|
|-------------------------------------------------------|
|-------------------------------------------------------|

 Now this is optional you can either end the song on that 8
 or you can end it like this.
|-------------|--------|-------|--3---------------------|
|---8-------or|---8--or|-----or|--3---------------------|
|-------------|--------|-------|--0---------------------|
|-------------|---5----|--5----|--0---------------------|
|-------------|--------|-------|--2---------------------|
|-------------|--------|-------|--3---------------------|

If your going to print this tab out copy and paste it to wordpad. It's the easiest. 
why i have that little gap in the middle of the tabs because I didnt it would print all 
up and have of a 6 bar line would be on 2 pages so use WordPad.
Добавлено: 20.04.2012
Другие материалы по этой песне:

Страница создана 20.04.2012
http://primanota.ru/harry-gregson-williams/metal-gear-saga-chords.htm
Привет, Гость.
Предлагаем пройти революционный курс по гитаре.
Подарок от PrimaNota.Ru, забирай!