PrimaNota.ru - самый крупный в мире бесплатный архив песенных текстов, аккордов, табулатур и нот


Harry Gregson-williams - Mgs 4 Father And Son - таба, видео

Регистрация Запомнить меня
Войти через:  Facebook Google Twitter Vk Yandex Mail.ru

Harry Gregson-williams - Mgs 4 Father And Son - таба, видео

Печатать
Просмотров: 230
e|--------------------------------------------------------------------------|
B|-----------------------------------------------13--------------12-13-13-12|
G|-------------------------------------10--12-14------14---12-14------------|
D|-10-9---------10-12-14--12-14-10-12---------------------------------------|
A|------10-12---------------------------------------------------------------|
E|--------------------------------------------------------------------------|

e|--------------------------------------------------------------------------|
B|--------------------------------------------------------------------------|
G|-10-9---------10-12-14--12-14-10-12--15--17-19-20---20-21-17-19-----------|
D|------10-12---------------------------------------------------------------|
A|--------------------------------------------------------------------------|
E|--------------------------------------------------------------------------|

e|--------------------------------------------------------------------------|
B|---------------------------------------------16---------------15-16-16-15-|
G|-8-7----------8-10-12--10-12-8-10--13--15-17------17---15-17--------------|
D|-----8-10-----------------------------------------------------------------|
A|--------------------------------------------------------------------------|
E|--------------------------------------------------------------------------|

e|--------------------------------------------------------------------------|
B|--------------------------------------------------------------------------|
G|-13-12-----------13-15-17--15-17-13-13---15-------------------------------|
D|-------13-15--------------------------------------------------------------|
A|--------------------------------------------------------------------------|
E|--------------------------------------------------------------------------|

e|--------------------------------------------------------------------------|
B|--------------------------------------------------------------------------|
G|-13-12-----------13-15-17--15-17-13-15-----12-12--10--8--6---8------------|
D|-------13-15--------------------------------------------------------------|
A|--------------------------------------------------------------------------|
E|--------------------------------------------------------------------------|
Добавлено: 12.12.2013
Вам также может быть интересно:
Другие материалы по этой песне:
  • Аккорды и текст

Страница создана 12.12.2013
http://primanota.ru/harry-gregson-williams/mgs-4-father-and-son-chords.htm
Привет, Гость.
Предлагаем пройти революционный курс по гитаре.
Подарок от PrimaNota.Ru, забирай!