PrimaNota.ru - самый крупный в мире бесплатный архив песенных текстов, аккордов, табулатур и нот


Hans Zimmer - Top gun theme - таба, видео

Регистрация Запомнить меня
Войти через:  Facebook Google Twitter Vk Yandex Mail.ru

Hans Zimmer - Top gun theme - таба, видео

Печатать
Просмотров: 209


Top Gun

E---3-3-1-0-1-0----------0---0-1-0--0
B-1---------------3-3-1-3-3-------1--3
G-------------------------------------------
D-------------------------------------------
A-------------------------------------------
E-------------------------------------------


E---3-3-1-0-1-0----------0---0-1-0-0-3
B-1---------------3-3-1-3-3-------1-----
G--------------------------------------------
D--------------------------------------------
A--------------------------------------------
E--------------------------------------------




Добавлено: 12.12.2013
Другие материалы по этой песне:
  • Аккорды и текст

Страница создана 12.12.2013
http://primanota.ru/hans-zimmer/top-gun-theme-chords.htm
Привет, Гость.
Предлагаем пройти революционный курс по гитаре.
Подарок от PrimaNota.Ru, забирай!