PrimaNota.ru - самый крупный в мире бесплатный архив песенных текстов, аккордов, табулатур и нот


Grouplove - Spiderhead Cover - аккорды и текст, видео

Регистрация Запомнить меня
Войти через:  Facebook Google Twitter Vk Yandex Mail.ru

Grouplove - Spiderhead Cover - аккорды и текст, видео

Печатать
Просмотров: 99
Уроки эстрадного вокала в Санкт-Петербурге
Spiderhead Cover
Grouplove
-----------------------------------------------------------------------------
                                          Artist - Grouplove
                                         ********************
                                Song - Spiderhead Cage The Elephant (Cover)
                               *********************************************
                                        Album - The Party's Over  
                                       *************************
                                         Tabbed By - Ayreon77
                                        **********************
-----------------------------------------------------------------------------
Tuning = Standard


INTRO
******
  F#            B                            D#m        C#         B
e|-------10----|-------11----|              |-----6----|-----4----|-----2----|
B|----11----11-|----12----12-|              |---7---7--|---6---6--|---4---4--|
G|-11----------|-11----------|Repeat        |-8--------|-6--------|-4--------|
D|-------------|-------------|     till     |----------|----------|----------|
A|--4 times----|--4 times----|         D#m  |--4 times-|--4 times-|--4 times-|
E|-------------|-------------|              |----------|----------|----------|


---------------------
VERSE 1 - Pick
********
F#
I am the one you left for dead,
    B
And here's the bullet in my head,
    F#
And as you stand over my grave,
    B
You pause the lips upon my face.


---------------------
VERSE 2 - Pick
********
F#                                B
  Either I'm in heaven, or I'm in hell,
F#                                         D#m
  Am I losing my mind, yeah, cause I can't tell
C#                                              B
 Yea, I've been waiting for answers for way too long,


---------------------
CHORUS - Strum
*******
F#                                  D#m
  Spiders in my head, spiders in my mind,
F#                                       D#m
  You may take my eyes, but baby I'm not blind,
       G#m              F#
And It all works out in time,
    G#m               F#
You know I'm gonna be alright,
    Bbm                                                G#m
And You may take my eyes, but baby, baby, baby I'm not blind.


---------------------
01:45
SOLO - Picking from Above
*****                                           h  p
e|-14--13--------------|-14-11-14-11----|-14--13-14-13--------------|-14-11-14-11----|
B|--------16-14--------|-------------14-|--------------16-14--------|-------------14-|
G|--------------15~~~~-|----------------|--------------------15~~~~-|----------------|
D|---------------------|----------------|---------------------------|----------------|
A|---------------------|----------------|---------------------------|----------------|
E|---------------------|----------------|---------------------------|----------------|


---------------------
VERSE 3 - Pick
********
F#                           B
I think your mother wants me dead,

(Say you wanted to)
F#                   B
I am a schizophrenic man,

(Ah)
F#                                B
  Either I'm in heaven, or I'm in hell,
F#                                       D#m
  Am I losing my mind yea, cause I can't tell
C#                                              B
  And I've been waiting for answers for way too long,


---------------------
CHORUS - Strum
*******
F#                                  D#m
  Spiders in my head, spiders in my mind,
F#                                       D#m
  You may take my eyes, but baby I'm not blind,
       G#m              F#
And It all works out in time,
    B                 F#
You know I'm gonna be alright,
    Bbm                                                G#m
And You may take my eyes, but baby, baby, baby I'm not blind.

Bbm     G#m
Ohhhhh  Ohhhhhh
Bbm     G#m
Ohhhhh  Ohhhhhh


---------------------
CHORUS
*******
F#                                  D#m
  Spiders in my head, spiders in my mind,
F#                                       D#m
  You may take my eyes, but baby I'm not blind,
       G#m              F#
And It all works out in time,
    B                 F#
You know I'm gonna be alright,
    Bbm                                                G#m
And You may take my eyes, but baby, baby, baby I'm not blind.
    Bbm                                                G#m
And You may take my eyes, but baby, baby, baby I'm not blind.


D#m
Ohhhhhhhhh


---------------------
OUTRO
******
SOLO - Picking from Above
*****                                           h  p
e|-14--13--------------|-14-11-14-11----|-14--13-14-13--------------|-14-11-14-11----|
B|--------16-14--------|-------------14-|--------------16-14--------|-------------14-|
G|--------------15~~~~-|----------------|--------------------15~~~~-|----------------|
D|---------------------|----------------|---------------------------|----------------|
A|---------------------|----------------|---------------------------|----------------|
E|---------------------|----------------|---------------------------|----------------|



ENJOY........
Добавлено: 30.08.2015
Другие материалы по этой песне:
  • Аккорды и текст

Страница создана 30.08.2015
http://primanota.ru/grouplove/spiderhead-cover-chords.htm
Привет, Гость.
Предлагаем пройти революционный курс по гитаре.
Подарок от PrimaNota.Ru, забирай!