PrimaNota.ru - самый крупный в мире бесплатный архив песенных текстов, аккордов, табулатур и нот


Grouplove - Didnt Have To Go - таба, видео

Регистрация Запомнить меня
Войти через:  Facebook Google Twitter Vk Yandex Mail.ru

Grouplove - Didnt Have To Go - таба, видео

Печатать
Просмотров: 127
-------------------------------------------------------------------------------
                       Didn't Have To Go - Grouplove
-------------------------------------------------------------------------------
Tabbed by: Alex M.

Guitar 1: Acoustic
Guitar 2: Electric
Bass

Tuning: Standard (eADGBE)
Bpm: 160

This song has a lot of complexity and tiny nuances.  I highly suggest giving it a listen if you want to learn
how to play it.  I've provided parts for 3 instruments, as well as a bit of info on the synth in the chorus and
bridge.
In the case of a "x2" after a bar, repeat that whole section (It's usually more than 1 bar); these repeated
sections are separated by an extra line break.

Guitar 1
--------
Intro:

   G#                                  D#                                    C#6
e|-----------------|-8---8---8---8---|-----------------|-6---6---6---6---||--6---6---6---6----||
B|-9---9---9---9---|-----------------|-8---8---8---8---|-----------------||o-----------------o||
G|---8---8---8---8-|---8---8---8---8-|---8---8---8---8-|---8---8---8---8-||----6---6---6---6--||
D|-----------------|-----------------|-----------------|-----------------||-------------------||
A|-----------------|-----------------|-----------------|-----------------||o-----------------o||
E|-----------------|-----------------|-----------------|-----------------||-------------------||     x2
   1 & 2 & 3 & 4 &   1 & 2 & 3 & 4 &   1 & 2 & 3 & 4 &   1 & 2 & 3 & 4 &     1 & 2 & 3 & 4 &
Verse 1:

   G#                                  D#
e|-----------------|-8---8---8---8---|-----------------|-6---6---6---6---|
B|-9---9---9---9---|-----------------|-8---8---8---8---|-----------------|
G|---8---8---8---8-|---8---8---8---8-|---8---8---8---8-|---8---8---8---8-|
D|-----------------|-----------------|-----------------|-----------------|
A|-----------------|-----------------|-----------------|-----------------|
E|-----------------|-----------------|-----------------|-----------------|
   1 & 2 & 3 & 4 &   1 & 2 & 3 & 4 &   1 & 2 & 3 & 4 &   1 & 2 & 3 & 4 &
       It's when you showed up late at night       I knew you were my
   C#6
e|-6---6---6---6---|-6---6---6---6---|-6---6---6---6---|-6---6---6---6---|
B|-----------------|-----------------|-----------------|-----------------|
G|---6---6---6---6-|---6---6---6---6-|---6---6---6---6-|---6---6---6---6-|
D|-----------------|-----------------|-----------------|-----------------|
A|-----------------|-----------------|-----------------|-----------------|
E|-----------------|-----------------|-----------------|-----------------|
   1 & 2 & 3 & 4 &   1 & 2 & 3 & 4 &   1 & 2 & 3 & 4 &   1 & 2 & 3 & 4 &
   ty-ype                       (yeah) ty-ype
   G#                                  D#
e|-----------------|-8---8---8---8---|-----------------|-6---6---6---6---|
B|-9---9---9---9---|-----------------|-8---8---8---8---|-----------------|
G|---8---8---8---8-|---8---8---8---8-|---8---8---8---8-|---8---8---8---8-|
D|-----------------|-----------------|-----------------|-----------------|
A|-----------------|-----------------|-----------------|-----------------|
E|-----------------|-----------------|-----------------|-----------------|
   1 & 2 & 3 & 4 &   1 & 2 & 3 & 4 &   1 & 2 & 3 & 4 &   1 & 2 & 3 & 4 &
       We fell asleep to "Neverminds"              I woke up by your
   C#6
e|-6---6---6---6---|-6---6---6---6---|-----------------|-----------------|
B|-----------------|-----------------|-----------------|-----------------|
G|---6---6---6---6-|---6---6---6---6-|-----------------|-----------------|
D|-----------------|-----------------|-----------------|-----------------|
A|-----------------|-----------------|-----------------|-----------------|
E|-----------------|-----------------|-----------------|-----------------|
   1 & 2 & 3 & 4 &   1 & 2 & 3 & 4 &   1 & 2 & 3 & 4 &   1 & 2 & 3 & 4 &
   si-ide,                             si-ide                  You didn't have to


Chorus 1:
(Acoustic Guitar 1 is very faint-sounding here.
There's a third, heavily distorted guitar here that plays straight eighths power-chords)
Strumming Pattern=(v^v^v^v^ ^v^ ^v^)

   G#M7          G#                    G#M7          G#
e|-4-4-4-4-4-4-4-4-|---4-4-4---4-4-4-|-4-4-4-4-4-4-4-4-|---4-4-4---4-4-4-|
B|-4-4-4-4-4-4-4-4-|---4-4-4---4-4-4-|-4-4-4-4-4-4-4-4-|---4-4-4---4-4-4-|
G|-5-5-5-5-5-5-5-5-|---5-5-5---5-5-5-|-5-5-5-5-5-5-5-5-|---5-5-5---5-5-5-|
D|-5-5-5-5-5-5-5-6-|---6-6-6---6-6-6-|-5-5-5-5-5-5-5-6-|---6-6-6---6-6-6-|
A|-6-6-6-6-6-6-6-6-|---6-6-6---6-6-6-|-6-6-6-6-6-6-6-6-|---6-6-6---6-6-6-|
E|-4-4-4-4-4-4-4-4-|---4-4-4---4-4-4-|-4-4-4-4-4-4-4-4-|---4-4-4---4-4-4-|
   1 & 2 & 3 & 4 &   1 & 2 & 3 & 4 &   1 & 2 & 3 & 4 &   1 & 2 & 3 & 4 &
   go                      You didn't have to go               You didn't have to
   Cm            Cm7                   Cm            Cm7
e|-3-3-3-3-3-3-3-3-|---3-3-3---3-3-3-|-3-3-3-3-3-3-3-3-|---3-3-3---3-3-3-|
B|-4-4-4-4-4-4-4-4-|---4-4-4---4-4-4-|-4-4-4-4-4-4-4-4-|---4-4-4---4-4-4-|
G|-5-5-5-5-5-5-5-3-|---3-3-3---3-3-3-|-5-5-5-5-5-5-5-3-|---3-3-3---3-3-3-|
D|-5-5-5-5-5-5-5-5-|---5-5-5---5-5-5-|-5-5-5-5-5-5-5-5-|---5-5-5---5-5-5-|
A|-3-3-3-3-3-3-3-3-|---3-3-3---3-3-3-|-3-3-3-3-3-3-3-3-|---3-3-3---3-3-3-|
E|-----------------|-----------------|-----------------|-----------------|     x2
   1 & 2 & 3 & 4 &   1 & 2 & 3 & 4 &   1 & 2 & 3 & 4 &   1 & 2 & 3 & 4 &
   go-o,                               o-oh                    You didn't have to (<-1st time only)


Verse 2:

   G#                                  D#
e|-----------------|-8---8---8---8---|-----------------|-6---6---6---6---|
B|-9---9---9---9---|-----------------|-8---8---8---8---|-----------------|
G|---8---8---8---8-|---8---8---8---8-|---8---8---8---8-|---8---8---8---8-|
D|-----------------|-----------------|-----------------|-----------------|
A|-----------------|-----------------|-----------------|-----------------|
E|-----------------|-----------------|-----------------|-----------------|
   1 & 2 & 3 & 4 &   1 & 2 & 3 & 4 &   1 & 2 & 3 & 4 &   1 & 2 & 3 & 4 &
       I thought that I was you were mine          You finished all my
   C#6
e|-6---6---6---6---|-6---6---6---6---|-6---6---6---6---|---9---9-9-8-6---|
B|-----------------|-----------------|-----------------|-----------------|
G|---6---6---6---6-|---6---6---6---6-|---6---6---6---6-|-----------------|
D|-----------------|-----------------|-----------------|-----------------|
A|-----------------|-----------------|-----------------|-----------------|
E|-----------------|-----------------|-----------------|-----------------|
   1 & 2 & 3 & 4 &   1 & 2 & 3 & 4 &   1 & 2 & 3 & 4 &   1 & 2 & 3 & 4 &
   li-ines                      (yeah) li-ines
   G#                                  D#
e|-----------------|-8---8---8---8---|-----------------|-6---6---6---6---|
B|-9---9---9---9---|-----------------|-8---8---8---8---|-----------------|
G|---8---8---8---8-|---8---8---8---8-|---8---8---8---8-|---8---8---8---8-|
D|-----------------|-----------------|-----------------|-----------------|
A|-----------------|-----------------|-----------------|-----------------|
E|-----------------|-----------------|-----------------|-----------------|
   1 & 2 & 3 & 4 &   1 & 2 & 3 & 4 &   1 & 2 & 3 & 4 &   1 & 2 & 3 & 4 &
       There's a time that we were riding     Side-by-side, but now I'm wondering
   C#6
e|-6---6---6---6---|-6---6---6---6---|-6---6---6---6---|-6---6---6---6---|
B|-----------------|-----------------|-----------------|-----------------|
G|---6---6---6---6-|---6---6---6---6-|---6---6---6---6-|---6---6---6---6-|
D|-----------------|-----------------|-----------------|-----------------|
A|-----------------|-----------------|-----------------|-----------------|
E|-----------------|-----------------|-----------------|-----------------|
   1 & 2 & 3 & 4 &   1 & 2 & 3 & 4 &   1 & 2 & 3 & 4 &   1 & 2 & 3 & 4 &
   Where'd the time go?                Where'd the time go-o?
   G#                                  D#
e|-----------------|-8---8---8---8---|-----------------|-6---6---6---6---|
B|-9---9---9---9---|-----------------|-8---8---8---8---|-----------------|
G|---8---8---8---8-|---8---8---8---8-|---8---8---8---8-|---8---8---8---8-|
D|-----------------|-----------------|-----------------|-----------------|
A|-----------------|-----------------|-----------------|-----------------|
E|-----------------|-----------------|-----------------|-----------------|
   1 & 2 & 3 & 4 &   1 & 2 & 3 & 4 &   1 & 2 & 3 & 4 &   1 & 2 & 3 & 4 &
       You said that young love never dies         We never got to
   C#6
e|-6---------------|-----------------|-6---------------|-----------------|
B|-6---------------|-----------------|-6---------------|-----------------|
G|-6---------------|-----------------|-6---------------|-----------------|
D|-----------------|-----------------|-----------------|-----------------|
A|-----------------|-----------------|-----------------|-----------------|
E|-----------------|-----------------|-----------------|-----------------|
   1 & 2 & 3 & 4 &   1 & 2 & 3 & 4 &   1 & 2 & 3 & 4 &   1 & 2 & 3 & 4 &
   try-y,                              try-y


[Chorus]


Bridge:

   Bb                                  G#
e|-6---------------|-----------------|-x---------------|-----------------|
B|-6---------------|-----------------|-4---------------|-----------------|
G|-7---------------|-----------------|-5---------------|-----------------|
D|-8---------------|-----------------|-6---------------|-----------------|
A|-8---------------|-----------------|-6---------------|-----------------|
E|-6---------------|-----------------|-4---------------|-----------------|     x2 (bridge intro)
   1 & 2 & 3 & 4 &   1 & 2 & 3 & 4 &   1 & 2 & 3 & 4 &   1 & 2 & 3 & 4 &


   Bb                                  G#
e|-6---------------|-----------------|-x---------------|-----------------|
B|-6---------------|-----------------|-4---------------|-----------------|
G|-7---------------|-----------------|-5---------------|-----------------|
D|-8---------------|-----------------|-6---------------|-----------------|
A|-8---------------|-----------------|-6---------------|-----------------|
E|-6---------------|-----------------|-4---------------|-----------------|
   1 & 2 & 3 & 4 &   1 & 2 & 3 & 4 &   1 & 2 & 3 & 4 &   1 & 2 & 3 & 4 &
       You were one in a million, weren't ya?  Thought you were one in a million.
   Bb                                  G#
e|-6---------------|-----------------|-x---------------|-----------------|
B|-6---------------|-----------------|-4---------------|-----------------|
G|-7---------------|-----------------|-5---------------|-----------------|
D|-8---------------|-----------------|-6---------------|-----------------|
A|-8---------------|-----------------|-6---------------|-----------------|
E|-6---------------|-----------------|-4---------------|-----------------|     x2 (both lines, not the intro)
   1 & 2 & 3 & 4 &   1 & 2 & 3 & 4 &   1 & 2 & 3 & 4 &   1 & 2 & 3 & 4 &
   Who-o-o-o-o-o-oa                    Who-o-o-o-o-o-oa        You didn't have to (<-2nd time only)

Final Chorus:

   G#
e|-----------------|-----------------|-----------------|-----------------|
B|-9---9---9---9---|-9---9---9---9---|-9---9---9---9---|-9---9---9---9---|
G|---8---8---8---8-|---8---8---8---8-|---8---8---8---8-|---8---8---8---8-|
D|-----------------|-----------------|-----------------|-----------------|
A|-----------------|-----------------|-----------------|-----------------|
E|-----------------|-----------------|-----------------|-----------------|
   1 & 2 & 3 & 4 &   1 & 2 & 3 & 4 &   1 & 2 & 3 & 4 &   1 & 2 & 3 & 4 &
   go                      You didn't have to go               You didn't have to 
   D#
e|-----------------|-----------------|-----------------|-----------------|
B|-8---8---8---8---|-8---8---8---8---|-8---8---8---8---|-8---8-----------|
G|---8---8---8---8-|---8---8---8---8-|---8---8---8---8-|---8---8-8-6-5-6-|
D|-----------------|-----------------|-----------------|-----------------|
A|-----------------|-----------------|-----------------|-----------------|
E|-----------------|-----------------|-----------------|-----------------|
   1 & 2 & 3 & 4 &   1 & 2 & 3 & 4 &   1 & 2 & 3 & 4 &   1 & 2 & 3 & 4 &
   go-oo                                                         You didn't have to


   G#
e|-------15----15--|---16----16------|-------15----15--|---16----16------|
B|-------16----16--|---16----16------|-------16----16--|---16----16------|
G|-5---13----13----|-13----13--------|-----13----13----|-13----13--------|
D|-----------------|-----------------|-----------------|-----------------|
A|-----------------|-----------------|-----------------|-----------------|
E|-----------------|-----------------|-----------------|-----------------|
   1 & 2 & 3 & 4 &   1 & 2 & 3 & 4 &   1 & 2 & 3 & 4 &   1 & 2 & 3 & 4 &
   go (You didn't, you didn't) You didn't have to go (You didn't, you didn't) You didn't have to
   D#
e|-------15----15--|---13----13------|-------15----15--|---13------------|
B|-------15----15--|---15----15------|-------15----15--|---15------------|
G|-----12----12----|-12----12--------|-----12----12----|-12---12-8-6-5-6-|
D|-----------------|-----------------|-----------------|-----------------|
A|-----------------|-----------------|-----------------|-----------------|
E|-----------------|-----------------|-----------------|-----------------|     x2
   1 & 2 & 3 & 4 &   1 & 2 & 3 & 4 &   1 & 2 & 3 & 4 &   1 & 2 & 3 & 4 &
   go-oo (You didn't, you didn't)                                You didn't have to (<-1st time only)


   G#
e|-------15----15--|---16----16------|-------15----15--|---16----16------|
B|-------16----16--|---16----16------|-------16----16--|---16----16------|
G|-5---13----13----|-13----13--------|-----13----13----|-13----13--------|
D|-----------------|-----------------|-----------------|-----------------|
A|-----------------|-----------------|-----------------|-----------------|
E|-----------------|-----------------|-----------------|-----------------|
   1 & 2 & 3 & 4 &   1 & 2 & 3 & 4 &   1 & 2 & 3 & 4 &   1 & 2 & 3 & 4 &
   D#
e|-------15----15--|---13----13------|-------15----15--|---13------------|
B|-------15----15--|---15----15------|-------15----15--|---15------------|
G|-----12----12----|-12----12--------|-----12----12----|-12------8-6-5-6-|
D|-----------------|-----------------|-----------------|-----------------|
A|-----------------|-----------------|-----------------|-----------------|
E|-----------------|-----------------|-----------------|-----------------|
   1 & 2 & 3 & 4 &   1 & 2 & 3 & 4 &   1 & 2 & 3 & 4 &   1 & 2 & 3 & 4 &
   G#
e|-4---------------|
B|-4---------------|
G|-5---------------|
D|-6---------------|
A|-6---------------|
E|-4---------------|
   1 & 2 & 3 & 4 &


Guitar 2:
---------
Intro: (no guitar 2)

Verse 1:

(no guitar 2)
   1 & 2 & 3 & 4 &   1 & 2 & 3 & 4 &   1 & 2 & 3 & 4 &   1 & 2 & 3 & 4 &
       It's when you showed up late at night       I knew you were my

e|-----------------|-----------------|-----------------|-----------------|
B|-----------------|-----------------|-----------------|-----------------|
G|-----------------|-----------------|-----------------|---------6-------|
D|-----------------|-----------------|---------3-------|-6---------------|
A|-----------------|-----------------|-4---------------|-----------------|
E|-----------------|-----------------|-----------------|-----------------|
   1 & 2 & 3 & 4 &   1 & 2 & 3 & 4 &   1 & 2 & 3 & 4 &   1 & 2 & 3 & 4 &
   ty-ype                       (yeah) ty-ype

e|-----------------|-----------------|-----------------|-----------------|
B|-----------------|-----------------|-----------------|-----------------|
G|-5---------------|-----------------|-0---------------|-----------------|
D|-----------------|-----------------|-----------------|-----------------|
A|-----------------|-----------------|-----------------|-----------------|
E|-----------------|-----------------|-----------------|-----------------|
   1 & 2 & 3 & 4 &   1 & 2 & 3 & 4 &   1 & 2 & 3 & 4 &   1 & 2 & 3 & 4 &
       We fell asleep to "Neverminds"              I woke up by your

E|-----------------|-----------------|-----------------|-----------------|
B|-----------------|-----------------|-6---------------|---------6-4-1/2-|
G|-----------------|-----------------|-6---------------|-----------------|
D|-3---------------|-----------------|-6---------------|-----------------|
A|-----------------|-----------------|-4---------------|-----------------|
E|-----------------|-----------------|-----------------|-----------------|
   1 & 2 & 3 & 4 &   1 & 2 & 3 & 4 &   1 & 2 & 3 & 4 &   1 & 2 & 3 & 4 &
   si-ide,                             si-ide                  You didn't have to

Chorus:

e|-----------------|-----------------|-----------------|-----------------|
B|-----------------|-----------------|-----------------|-----------------|
G|-----------------|-----------------|-----------------|-----------------|
D|-----------------|-----------------|-----------------|-----------------|
A|-----------------|-----------------|-----------------|-----------------|
E|-----------------|-----------------|-----------------|-----------------|
   1 & 2 & 3 & 4 &   1 & 2 & 3 & 4 &   1 & 2 & 3 & 4 &   1 & 2 & 3 & 4 &
   go                       You didn't have to go              You didn't have to

e|-----------------|-----------------|-----------------|-----------------|
B|-----------------|-----------------|-----------------|---------4-2-1/2-|
G|-----------------|-----------------|-----------------|-----------------|
D|-----------------|-----------------|-----------------|-----------------|
A|-----------------|-----------------|-----------------|-----------------|
E|-----------------|-----------------|-----------------|-----------------|
   1 & 2 & 3 & 4 &   1 & 2 & 3 & 4 &   1 & 2 & 3 & 4 &   1 & 2 & 3 & 4 &
   go-o,                               o-oh                    You didn't have to
   p                                   f
e|-----------------|-4-4-4-4-4-4-4-4-|-----------------|-4-4-4-4-4-4-4-4-|
B|-1-1-1-1-1-1-1-1-|-----------------|-1-1-1-1-1-1-1-1-|-----------------|
G|-----------------|-----------------|-----------------|-----------------|
D|-----------------|-----------------|-----------------|-----------------|
A|-----------------|-----------------|-----------------|-----------------|
E|-----------------|-----------------|-----------------|-----------------|
   1 & 2 & 3 & 4 &   1 & 2 & 3 & 4 &   1 & 2 & 3 & 4 &   1 & 2 & 3 & 4 &
   go                        You didn't have to go             You didn't have to

e|-3-3-3-3-3-3-3-1-|-----------------|---------------1-|---4-1-----------|
B|-----------------|-4-4-4-4-4-4-4-4-|-1-1-1-1-1-1-1---|-------4---2-1-2-|
G|-----------------|-----------------|-----------------|-----------------|
D|-----------------|-----------------|-----------------|-----------------|
A|-----------------|-----------------|-----------------|-----------------|
E|-----------------|-----------------|-----------------|-----------------|
   1 & 2 & 3 & 4 &   1 & 2 & 3 & 4 &   1 & 2 & 3 & 4 &   1 & 2 & 3 & 4 &
   go-o,                               o-oh

(Bonus Synth part: This plays underneath the chorus)
e|-----------------|-----13--15--16--|-----------------|-----13--15--16--|
B|-13--------------|-----------------|-13--------------|-----------------|
G|-----------------|-----------------|-----------------|-----------------|
D|-----------------|-----------------|-----------------|-----------------|
A|-----------------|-----------------|-----------------|-----------------|
E|-----------------|-----------------|-----------------|-----------------|
   1 & 2 & 3 & 4 &   1 & 2 & 3 & 4 &   1 & 2 & 3 & 4 &   1 & 2 & 3 & 4 &
e|-20--------------|-18--------------|-20--------------|-18--------------|
B|-----------------|-----------------|-----------------|-----------------|
G|-----------------|-----------------|-----------------|-----------------|
D|-----------------|-----------------|-----------------|-----------------|
A|-----------------|-----------------|-----------------|-----------------|
E|-----------------|-----------------|-----------------|-----------------|     x2
   1 & 2 & 3 & 4 &   1 & 2 & 3 & 4 &   1 & 2 & 3 & 4 &   1 & 2 & 3 & 4 &

Verse 2:

e|-----------------|-----------------|-----------------|-----------------|
B|-1---------------|-----------------|-----------------|-----------------|
G|-----------------|-----------------|-0---------------|-----------------|
D|-----------------|-----------------|-----------------|-----------------|
A|-----------------|-----------------|-----------------|-----------------|
E|-----------------|-----------------|-----------------|-----------------|
   1 & 2 & 3 & 4 &   1 & 2 & 3 & 4 &   1 & 2 & 3 & 4 &   1 & 2 & 3 & 4 &
       I thought that I was you were mine          You finished all my

E|-----------------|-----------------|-----------------|-----------------|
B|-----------------|-----------------|-----------------|-----------------|
G|-----------------|-----------------|---------0-------|-1------/6-------|
D|-3---------------|-----------------|-3---------------|-----------------|
A|-----------------|-----------------|-----------------|-----------------|
E|-----------------|-----------------|-----------------|-----------------|
   1 & 2 & 3 & 4 &   1 & 2 & 3 & 4 &   1 & 2 & 3 & 4 &   1 & 2 & 3 & 4 &
  li-ines                       (yeah) li-ines

e|-----------------|-----------------|-----------------|-----------------|
B|-----------------|-----------------|-----------------|-----------------|
G|-5---------------|-----------------|-0---------------|-----------------|
D|-----------------|-----------------|-----------------|-----------------|
A|-----------------|-----------------|-----------------|-----------------|
E|-----------------|-----------------|-----------------|-----------------|
   1 & 2 & 3 & 4 &   1 & 2 & 3 & 4 &   1 & 2 & 3 & 4 &   1 & 2 & 3 & 4 &
       There's a time that we were riding      Side-by-side, but now I'm wondering

E|-----------------|-----------------|-----------------|-----------------|
B|-----------------|-2---------------|-----------------|-----------------|
G|-----------------|-----------------|---------0-------|-1------/6-------|
D|-3---------------|-----------------|-3---------------|-----------------|
A|-----------------|-----------------|-----------------|-----------------|
E|-----------------|-----------------|-----------------|-----------------|
   1 & 2 & 3 & 4 &   1 & 2 & 3 & 4 &   1 & 2 & 3 & 4 &   1 & 2 & 3 & 4 &
   Where'd the time go?                Where'd the time go-o?

e|-----------------|-----------------|-----------------|-----------------|
B|-----------------|-----------------|-----------------|-----------------|
G|-5---------------|-----------------|-0---------------|-----------------|
D|-----------------|-----------------|-----------------|-----------------|
A|-----------------|-----------------|-----------------|-----------------|
E|-----------------|-----------------|-----------------|-----------------|
   1 & 2 & 3 & 4 &   1 & 2 & 3 & 4 &   1 & 2 & 3 & 4 &   1 & 2 & 3 & 4 &
     You said that young love never dies           We never got to
                                       <
E|-6---------------|-----------------|-----------------|-----------------|
B|-6---------------|-----------------|-6-6-6-6-6-6-6-6-|-6-6-6-6-4-4-4-4-|
G|-6---------------|-----------------|-----------------|-----------------|
D|-6---------------|-----------------|-----------------|-----------------|
A|-4---------------|-----------------|-----------------|-----------------|
E|-----------------|-----------------|-----------------|-----------------|
   1 & 2 & 3 & 4 &   1 & 2 & 3 & 4 &   1 & 2 & 3 & 4 &   1 & 2 & 3 & 4 &
   try-y,                              try-y


[Chorus]


Bridge:

(Bonus Synth part: This plays underneath the guitar as the intro to the bridge)
(use your pinky for the high 8 in measure 2)
e|-----------------|-------------8---|-----------------|-----------------|
B|-----------------|-------------6---|-----------------|---4---4-6-4-----|
G|-----------------|-------------7---|-----------------|-5---5-------5-3-|
D|-8-8---8-8-8---8-|-8-8---8-8-8-----|-6-6---6-6-6---6-|-----------------|
A|-8-8---8-8-8---8-|-8-8---8-8-8-----|-6-6---6-6-6---6-|-----------------|
E|-6-6---6-6-6---6-|-6-6---6-6-6-----|-4-4---4-4-4---4-|-----------------|
   1 & 2 & 3 & 4 &   1 & 2 & 3 & 4 &   1 & 2 & 3 & 4 &   1 & 2 & 3 & 4 &

e|-----------------|-------------8---|-----------------|-----------------|
B|-----------------|-------------6---|-----------------|-----------------|
G|-----------------|-------------7---|-----------------|-----------------|
D|-8-8---8-8-8---8-|-8-8---8-8-8-----|-6-6---6-6-6---6-|-6-6---6-6p5---5-|
A|-8-8---8-8-8---8-|-8-8---8-8-8-----|-6-6---6-6-6---6-|-6-6---6-6-6---6-|
E|-6-6---6-6-6---6-|-6-6---6-6-6-----|-4-4---4-4-4---4-|-4-4---4-4-4---4-|     x2
   1 & 2 & 3 & 4 &   1 & 2 & 3 & 4 &   1 & 2 & 3 & 4 &   1 & 2 & 3 & 4 &


(Electric guitar: This plays at the same time as the synth)
e|-----------------|-----------------|-----------------|-----------------|
B|-----------------|-----------------|-----------------|-----------------|
G|-----------------|-----------------|-----------------|-------------3---|
D|-----------------|-----------------|-----------------|-----------------|
A|-----------------|-----------------|-----------------|-----------------|
E|-----------------|-----------------|-----------------|-----------------|
   1 & 2 & 3 & 4 &   1 & 2 & 3 & 4 &   1 & 2 & 3 & 4 &   1 & 2 & 3 & 4 &
                                                                  Heavily distorted
e|-----------------|-----------------|-----------------|-----------------|
B|-----------------|-----------------|-----------------|-----------------|
G|-----------------|-----------------|-----------------|-----------------|
D|-3---------------|---------3h5-----|-----------------|---------6p5~~~--|
A|-----------------|-----------------|-6---------------|-----------------|
E|-----------------|-----------------|-----------------|-----------------|
   1 & 2 & 3 & 4 &   1 & 2 & 3 & 4 &   1 & 2 & 3 & 4 &   1 & 2 & 3 & 4 &


e|-----------------|-----------------|-----------------|-----------------|
B|-----------------|-----------------|-----------------|-----------------|
G|-----------------|-----------------|-----------------|-----------------|
D|-3~~~~~~~~~~~~~~-|-~~~~~~~~3h5~~~--|-----------------|---------5~~~~~--|
A|-----------------|-----------------|-6~~~~~~~~~~~~~~-|-~~~~~~~~--------|
E|-----------------|-----------------|-----------------|-----------------|
   1 & 2 & 3 & 4 &   1 & 2 & 3 & 4 &   1 & 2 & 3 & 4 &   1 & 2 & 3 & 4 &
       You were one in a million, weren't ya?  Thought you were one in a million.

e|-----------------|-----------------|-----------------|-----------------|
B|-----------------|-----------------|-----------------|-----------------|
G|-----------------|-----------------|-----------------|-----------------|
D|-3~~~~~~~~~~~~~~-|-~~~~~~~~3h5~~~--|-----------------|-----------------|
A|-----------------|-----------------|-6~~~~~~~~~~~~~~-|-~~~~~~~~~~~~~~~-|
E|-----------------|-----------------|-----------------|-----------------|     x2 (previous 2 bars)
   1 & 2 & 3 & 4 &   1 & 2 & 3 & 4 &   1 & 2 & 3 & 4 &   1 & 2 & 3 & 4 &
   Who-o-o-o-o-o-oa                    Who-o-o-o-o-o-oa        You didn't have to (<-2nd Time only)

Final Chorus:

   G#
e|-----------------|-----------------|-----------------|-----------------|
B|-4---------------|-----------------|-----------------|-----------------|
G|-5---------------|-----------------|-----------------|-----------------|
D|-6---------------|-----------------|-----------------|-----------------|
A|-6---------------|-----------------|-----------------|-----------------|
E|-4---------------|-----------------|-----------------|-----------------|
   1 & 2 & 3 & 4 &   1 & 2 & 3 & 4 &   1 & 2 & 3 & 4 &   1 & 2 & 3 & 4 &
   go                      You didn't have to go                You didn't have to
   >                                   >
e|-4p3---4p3---4p3-|---4p3---4p3-----|-4p3---4p3---4p3-|---4p3-----------|
B|-----------------|-----------------|-----------------|-----------------|
G|-----------------|-----------------|-----------------|-----------------|
D|-----------------|-----------------|-----------------|-----------------|
A|-----------------|-----------------|-----------------|-----------------|
E|-----------------|-----------------|-----------------|-----------------|
   1 & 2 & 3 & 4 &   1 & 2 & 3 & 4 &   1 & 2 & 3 & 4 &   1 & 2 & 3 & 4 &
   go-oo,                                                       You didn't have to


   >                                   >
e|-6h8---6h8---6h8-|---6h8---6h8-----|-6h8---6h8---6h8-|---6h8---6h8-----|
B|-----------------|-----------------|-----------------|-----------------|
G|-----------------|-----------------|-----------------|-----------------|
D|-----------------|-----------------|-----------------|-----------------|
A|-----------------|-----------------|-----------------|-----------------|
E|-----------------|-----------------|-----------------|-----------------|
   1 & 2 & 3 & 4 &   1 & 2 & 3 & 4 &   1 & 2 & 3 & 4 &   1 & 2 & 3 & 4 &
   go (You didn't, you didn't) You didn't have to go (You didn't, you didn't) You didn't have to
   >                                   >
e|-4p3---4p3---4p3-|---4p3---4p3-----|-4p3---4p3---4p3-|---4p3---4p3-----|
B|-----------------|-----------------|-----------------|-----------------|
G|-----------------|-----------------|-----------------|-----------------|
D|-----------------|-----------------|-----------------|-----------------|
A|-----------------|-----------------|-----------------|-----------------|
E|-----------------|-----------------|-----------------|-----------------|   x2
   1 & 2 & 3 & 4 &   1 & 2 & 3 & 4 &   1 & 2 & 3 & 4 &   1 & 2 & 3 & 4 &
   go-o (You didn't, you didn't), oh                            You didn't have to (<-1st time only)

(Solo)
e|-6h8---6h8---6h8-|---6h8---6h8---6-|h8---6h8---6h8---|-6h8---6h8---6---|
B|-----------------|-----------------|-----------------|-----------------|
G|-----------------|-----------------|-----------------|-----------------|
D|-----------------|-----------------|-----------------|-----------------|
A|-----------------|-----------------|-----------------|-----------------|
E|-----------------|-----------------|-----------------|-----------------|
   1 & 2 & 3 & 4 &   1 & 2 & 3 & 4 &   1 & 2 & 3 & 4 &   1 & 2 & 3 & 4 &

e|-4p3---4p3---4p3-|---4p3---4p3-----|-4p3---4p3---4p3-|---4p3---4p3-----|
B|-----------------|-----------------|-----------------|-----------------|
G|-----------------|-----------------|-----------------|-----------------|
D|-----------------|-----------------|-----------------|-----------------|
A|-----------------|-----------------|-----------------|-----------------|
E|-----------------|-----------------|-----------------|-----------------|
   1 & 2 & 3 & 4 &   1 & 2 & 3 & 4 &   1 & 2 & 3 & 4 &   1 & 2 & 3 & 4 &

e|-4---------------|
B|-4---------------|
G|-5---------------|
D|-6---------------|
A|-6---------------|
E|-4---------------|
   1 & 2 & 3 & 4 &


Bass:
-----

It's when you showed up late at night
I knew you were my ty-ype (yeah) ty-ype

                 ^                                   ^
G|-1-----------1-1-|---1-1-------1---|-----------------|-----------------|
D|-----------------|-----------------|-1-----------1-1-|---1-1-------1---|
A|-----------------|-----------------|-----------------|-----------------|
E|-----------------|-----------------|-----------------|-----------------|
   1 & 2 & 3 & 4 &   1 & 2 & 3 & 4 &   1 & 2 & 3 & 4 &   1 & 2 & 3 & 4 &
   We fell asleep to "Neverminds"                  I woke up by your

                 ^
G|-----------------|-----------------|-----------------|-----------------|
D|-----------------|-----------------|-----------------|-----------------|
A|-4-----------4-4-|---4-4-------4---|-4---------------|-----------------|
E|-----------------|-----------------|-----------------|-----------------|
   1 & 2 & 3 & 4 &   1 & 2 & 3 & 4 &   1 & 2 & 3 & 4 &   1 & 2 & 3 & 4 &
   si-ide,                             si-ide                  You didn't have to 

Chorus:

G|-----------------|-----------------|-----------------|-----------------|
D|-----------------|-----------------|-----------------|-----------------|
A|-----------------|-----------------|-----------------|-----------------|
E|-4-4---4-4-4---4-|-4-4---4-4-4---4-|-4-4---4-4-4---4-|-4-4---4-4-4---4-|
   1 & 2 & 3 & 4 &   1 & 2 & 3 & 4 &   1 & 2 & 3 & 4 &   1 & 2 & 3 & 4 &
   go                      You didn't have to go               You didn't have to

G|-----------------|-----------------|-----------------|-----------------|
D|-----------------|-----------------|-----------------|-3---6-3---------|
A|-3-3---3-3-3---3-|-3-3---3-3-3---3-|-3-3---3-3-3---3-|---------6-3-----|
E|-----------------|-----------------|-----------------|-------------6---|     x2
   1 & 2 & 3 & 4 &   1 & 2 & 3 & 4 &   1 & 2 & 3 & 4 &   1 & 2 & 3 & 4 &
   go-o,                               oh                      You didn't have to (<-1st time only)


Verse 2:
                 ^                                   ^
G|-1-----------1-1-|---1-1-------1---|-----------------|-----------------|
D|-----------------|-----------------|-1-----------1-1-|---1-1-------1---|
A|-----------------|-----------------|-----------------|-----------------|
E|-----------------|-----------------|-----------------|-----------------|
   1 & 2 & 3 & 4 &   1 & 2 & 3 & 4 &   1 & 2 & 3 & 4 &   1 & 2 & 3 & 4 &
       I thought that I was you were mine          You finished all my

                 ^
G|-----------------|-----------------|-----------------|-----------------|
D|-----------------|-----------------|-----------------|-3---6---3\------|
A|-4-----------4-4-|---4-4-------4---|-4-------6-------|-----------------|
E|-----------------|-----------------|-----------------|-----------------|
   1 & 2 & 3 & 4 &   1 & 2 & 3 & 4 &   1 & 2 & 3 & 4 &   1 & 2 & 3 & 4 &
   li-ines                       (yeah) li-ines
                 ^                                   ^
G|-1-----------1-1-|---1-1-------1---|-----------------|-----------------|
D|-----------------|-----------------|-1-----------1-1-|---1-1-------1---|
A|-----------------|-----------------|-----------------|-----------------|
E|-----------------|-----------------|-----------------|-----------------|
   1 & 2 & 3 & 4 &   1 & 2 & 3 & 4 &   1 & 2 & 3 & 4 &   1 & 2 & 3 & 4 &
       There's a time that we were riding     Side-by-side, but now I'm wondering
                 ^                                   ^
G|-----------------|-----------------|-----------------|-----------------|
D|-----------------|-----------------|-----------------|-----------------|
A|-4-----------4-4-|---4-4-------4---|-4-----------4-4-|---4-4-------4---|
E|-----------------|-----------------|-----------------|-----------------|
   1 & 2 & 3 & 4 &   1 & 2 & 3 & 4 &   1 & 2 & 3 & 4 &   1 & 2 & 3 & 4 &
   Where'd the time go?                Where'd the time go-o?
                 ^                                   ^
G|-1-----------1-1-|---1-1-------1---|-----------------|-----------------|
D|-----------------|-----------------|-1-----------1-1-|---1-1-------1---|
A|-----------------|-----------------|-----------------|-----------------|
E|-----------------|-----------------|-----------------|-----------------|
   1 & 2 & 3 & 4 &   1 & 2 & 3 & 4 &   1 & 2 & 3 & 4 &   1 & 2 & 3 & 4 &
       You said that young love never dies         We never got to

G|-----------------|-----------------|-----------------|-----------------|
D|-----------------|-----------------|-----------------|-----------------|
A|-4---------------|-------------4---|-4---------------|-----------------|
E|-----------------|-----------------|-----------------|-----------------|
   1 & 2 & 3 & 4 &   1 & 2 & 3 & 4 &   1 & 2 & 3 & 4 &   1 & 2 & 3 & 4 &
   try-y,                              try-y

[Chorus]

Bridge:

G|-----------------|
D|-----------------|
A|-----------------|
E|-6---------------|     Rest for 7 measures
   1 & 2 & 3 & 4 &


G|-----------------|-----------------|-----------------|-----------------|
D|-----------------|-----------------|-----------------|-----------------|
A|-----------------|-----------------|-----------------|-----------------|
E|-6-6---6-6-6---6-|-6-6---6-6-6---6-|-4-4---4-4-4---4-|-4-4---4-4-4---4-|
   1 & 2 & 3 & 4 &   1 & 2 & 3 & 4 &   1 & 2 & 3 & 4 &   1 & 2 & 3 & 4 &
       You were one in a million, weren't ya?  Thought you were one in a million.

G|-----------------|-----------------|-----------------|-----------------|
D|-----------------|-----------------|-----------------|-----------------|
A|-----------------|-----------------|-----------------|-----------------|
E|-6-6---6-6-6---6-|-6-6---6-6-6---6-|-4-4---4-4-4---4-|-4-4---4-4-4---4-|     x2
   1 & 2 & 3 & 4 &   1 & 2 & 3 & 4 &   1 & 2 & 3 & 4 &   1 & 2 & 3 & 4 &
   Who-o-o-o-o-o-oa                    Who-o-o-o-o-o-oa        You didn't have to (<-2nd Time only)

Final Chorus:

G|-----------------|-----------------|-----------------|-----------------|
D|-----------------|-----------------|-----------------|-----------------|
A|-----------------|-----------------|-----------------|-----------------|
E|-4---------------|-----------------|-----------------|-----------------|
   1 & 2 & 3 & 4 &   1 & 2 & 3 & 4 &   1 & 2 & 3 & 4 &   1 & 2 & 3 & 4 &
   go                      You didn't have to go               You didn't have to

G|-----------------|-----------------|-----------------|-----------------|
D|-----------------|-----------------|-----------------|-----------------|
A|-3---------------|-----------------|-----------------|-----------------|
E|-----------------|-----------------|-----------------|-----------------|
   1 & 2 & 3 & 4 &   1 & 2 & 3 & 4 &   1 & 2 & 3 & 4 &   1 & 2 & 3 & 4 &
   go-oo                                                       You didn't have to


       ^                 ^                 ^                 ^
G|-----------------|-----------------|-----------------|-----------------|
D|-----6---6-------|-----6---6-------|-----6---6-------|-----6---6-------|
A|---3-------------|---3-------------|---3-------------|---3-------------|
E|-4-------------4-|-----------------|-4-------------4-|-----------------|
   1 & 2 & 3 & 4 &   1 & 2 & 3 & 4 &   1 & 2 & 3 & 4 &   1 & 2 & 3 & 4 &
   go (You didn't, you didn't) You didn't have to go (You didn't, you didn't) You didn't have to
                 ^
G|-----------------|-----------------|-----------------|-----------------|
D|-----------------|-----------------|-----------------|-3---6-3---------|
A|-3-----------3-3-|---3-3-----------|-3---------------|---------6-3-----|
E|-----------------|-----------------|-----------------|-------------6---|     x3 (w/o singing last time)
   1 & 2 & 3 & 4 &   1 & 2 & 3 & 4 &   1 & 2 & 3 & 4 &   1 & 2 & 3 & 4 &
   go-o (You didn't, you didn't)                               You didn't have to

G|-----------------|
D|-----------------|
A|-----------------|
E|-4---------------|

************************************

| /   slide up
| \   slide down
| h   hammer-on
| p   pull-off
| ~   vibrato
| +   harmonic
| x   Mute note
| b   Bend
| pb  Pre-bend
| br  Bend release
| pbr Pre-bend release
| brb Bend release bend

************************************
Добавлено: 30.08.2015
Другие материалы по этой песне:
  • Аккорды и текст

Страница создана 30.08.2015
http://primanota.ru/grouplove/didnt-have-to-go-chords.htm
Привет, Гость.
Предлагаем пройти революционный курс по гитаре.
Подарок от PrimaNota.Ru, забирай!