PrimaNota.ru - самый крупный в мире бесплатный архив песенных текстов, аккордов, табулатур и нот


Greg Laswell - Off I Go - таба, видео

Регистрация Запомнить меня
Войти через:  Facebook Google Twitter Vk Yandex Mail.ru

Greg Laswell - Off I Go - таба, видео

Печатать
Просмотров: 214
-------------------------------------------------------------------------------
                          Off I Go - Greg Laswell
-------------------------------------------------------------------------------
Tabbed by: Austin J.
Email:soccerchamp20@sbcglobal.net

This is my first tab, please go easy. I noticed no one has tabbed this yet, so I thought 
give it a go.
Corrections are welcome, it's definitely not 100% accurate, but it should be enough to 
you going.

This song is best played with 2 guitarists, but can be done with 1.

~~~~~@@@@@@@@  USE OF THIS TAB WITHOUT EXPRESS WRITTEN PERMISSION FROM THE AUTHOR, 
J., IS PROHIBITED! @@@@@@@~~~~~~~

Tuning:EADGBe

ORDER OF SONG:

INTRO: Piano part 1st time, then add 1st guitar part
VERSE 1: Piano part and 1st guitar part
CHORUS
POST CHORUS: Piano part
VERSE 2: Piano part and 1st and 2nd guitar part
CHORUS: Chorus and 2nd guitar part
POST CHORUS 2: Piano and 3rd guitar part
Bridge: All parts
OUTRO: Piano part and last guitar note at the end


   First section piano part, transcribed for guitar:

       (Repeated throughout most of the song)
e|---------------------------------------------------------------------------|
B|-0---0---0---0---0---0---0---0---0---0---0---0---0---0---0---0-------------|
G|---1---1---1---1---1---1---1---1-------------------------------------------|
D|-----------------------------------4---4---4---4---4---4---4---4-----------|
A|---------------------------------------------------------------------------|
E|---------------------------------------------------------------------------|

e|---------------------------------------------------------------------------|
B|-0---0---0---0---0---0---0---0---0---0---0---0---0---0---0---0-------------|
G|---------------------------------------------------------------------------|
D|---2---2---2---2---2---2---2---2---3---3---3---3---3---3---3---3-----------|
A|---------------------------------------------------------------------------|
E|---------------------------------------------------------------------------|


   1st guitar part

       (Again, repeated throughout most of the song)
e|-7---7---7---7---7---7---7---7---7---7---7---7---7---7---7---7---7---7-----|
B|---9-------9-------9-------9-------7-------7-------7-------7-------5-------|
G|---------------------------------------------------------------------------|
D|---------------------------------------------------------------------------|
A|---------------------------------------------------------------------------|
E|---------------------------------------------------------------------------|

e|-7---7---7---7---7---7---7---7---7---7---7---7---9---7---7-----------11~~~~|
B|---5-------5-------5-------6-------6-------6-----------6-------------------|
G|---------------------------------------------------------------------------|
D|---------------------------------------------------------------------------|
A|---------------------------------------------------------------------------|
E|---------------------------------------------------------------------------|


   Chorus (Not sure on these chords, but its what I play)
   16 times each, straight eigth notes

e|----4----------4----------4----------4-------------------------------------|
B|----4----------4----------4----------6-------------------------------------|
G|----4----------4----------4----------4-------------------------------------|
D|----6----------4----------8----------6-------------------------------------|
A|----6----------6----------9----------4-------------------------------------|
E|----4----------4----------4----------4-------------------------------------|

~~~~~@@@@@@@@  USE OF THIS TAB WITHOUT EXPRESS WRITTEN PERMISSION FROM THE AUTHOR, 
J., IS PROHIBITED! @@@@@@@~~~~~~~


   2nd guitar part, played during 2nd verse and the
   rest of the song after that.

     Bracketed part play 2 times
e|---{11--12--11--14--11--12--7}------11--12--11--14--11--12--7/13-----------|
B|---------------------------------------------------------------------------|
G|---------------------------------------------------------------------------|
D|---------------------------------------------------------------------------|
A|---------------------------------------------------------------------------|
E|---------------------------------------------------------------------------|


   3rd guitar part

    Bracketed part play 2 times, repeat last note in this phrase 6                  times at around 
in the song, otherwise, just hold it
e|---------------------------------------------------------------------------|
B|--{12--12--11--11--7}-----------------------12--12--11--6--6---------------|
G|---------------------------------------------------------------------------|
D|---------------------------------------------------------------------------|
A|---------------------------------------------------------------------------|
E|---------------------------------------------------------------------------|

   Last note at the very end of the song, hold it briefly
e|--11~~~~~~~~---------------------------------------------------------------|
B|---------------------------------------------------------------------------|
G|---------------------------------------------------------------------------|
D|---------------------------------------------------------------------------|
A|---------------------------------------------------------------------------|
E|---------------------------------------------------------------------------|


~~~~~@@@@@@@@  USE OF THIS TAB WITHOUT EXPRESS WRITTEN PERMISSION FROM THE AUTHOR, 
J., IS PROHIBITED! @@@@@@@~~~~~~~


| /  slide up
| \  slide down
| h  hammer-on
| p  pull-off
| ~  vibrato
| +  harmonic
| x  Mute note
===============================================================================
Добавлено: 14.06.2012
Другие материалы по этой песне:

Страница создана 14.06.2012
http://primanota.ru/greg-laswell/off-i-go-chords.htm
Привет, Гость.
Предлагаем пройти революционный курс по гитаре.
Подарок от PrimaNota.Ru, забирай!