PrimaNota.ru - самый крупный в мире бесплатный архив песенных текстов, аккордов, табулатур и нот


Greg Joy - Sylvie - таба, видео

Регистрация Запомнить меня
Войти через:  Facebook Google Twitter Vk Yandex Mail.ru

Greg Joy - Sylvie - таба, видео

Печатать
Просмотров: 298
Greg Joy - Sylvie [Celtic Secrets]


|-------------------------------------0-------------------|
|----------------------------3--------0-------------------|
|--------------------------4--------0---0-----------------|
|------2-------0-----2---4-----(0)2-----------0-----2-----|
|----2---2---2-----2---2--------------------2-----2---2---|
|--0-------2-----0------------------------2-----0---------|

|---------------------------------------------------------|
|-----0-0-3-1-0-----0-------------------------------------| 2x
|-----4-----2---2-----0-------0-2-------------------------|
|---2-2-----2-----2---0-4-2-4-----2-----------0-----2-----|
|-----------0-------------3---------2---2---2-----2---2---|
|---------------------------------0---0---2-----0---------|

|------------------------------------0----0-2-(2)3-2-0---------------|
|-----5---3-1-0----------------------3~5---------------3-0---0-------|
|-----4-4---2---2---2-2---2-0------------------------------2---------|
|---2-2-----2-----2---4-4-----2--------------------------------2-4---|
|-----------0-------------------2---2----------------2-------3---2---|
|---------------------------0-----0----------------------------------|

|-------------------------------------0-------------------|
|----------------------------3--------0-------------------|
|--------------------------4--------0---0-----------------|
|--2-----------0-----2---4-----(0)2-----------0-----2-----|
|----2---2---2-----2---2--------------------2-----2-------|
|--0---0---2-----0------------------------2-----0---------|
Добавлено: 12.04.2012
Другие материалы по этой песне:
  • Аккорды и текст

Страница создана 12.04.2012
http://primanota.ru/greg-joy/sylvie-chords.htm
Привет, Гость.
Предлагаем пройти революционный курс по гитаре.
Подарок от PrimaNota.Ru, забирай!