PrimaNota.ru - самый крупный в мире бесплатный архив песенных текстов, аккордов, табулатур и нот


Grave Digger - Heroes Of This Time - текст песни, таба, видео

Регистрация Запомнить меня
Войти через:  Facebook Google Twitter Vk Yandex Mail.ru

Grave Digger - Heroes Of This Time - текст песни, таба, видео

Печатать
Просмотров: 142
Heroes Of This Time
By Grave Digger


From album "Knights Of The Cross" (1998)

Transcribed by Teemu Haapanen   
Email: thaapanen@pp.nic.fi



 Intro (2x) (Acoustic Gtr.)
|---------------------------------|
|*---------0-(0)----------3-(3)--*|
|--------0--------------0---------|
|------2--------------2-----------|
|*---2--------------2------------*|
|--0--------------0---------------|



 Riff 1
|-------------------------------------------------------|
|-------------------------------------------------------|
|-----7\--9-----10\--9------7\--9\-10\------------------|
|-----5\--7------8\--7------5\--7\--8\------------------|
|-------------------------------------------------------|
|-0-0--------0-0--------0-0-------------0-0-0-0-0-0-0-0-|
  . .        . .        . .             . . . . . . . .


|-----------------------------------------------------|
|-----------------------------------------------------|
|-7\--9-----10\--9------7\--9\-10\--------------------|
|-5\--7------8\--7------5\--7\--8\--------------------|
|-----------------------------------------------------|
|--------0-0--------0-0-------------0-0-0-0-0-0--0-00-|
         . .        . .             . . . . . .  . ..
 


 Riff 2
|---------------------------------------------------------------------|
|---------------------------------------------------------------------|
|---------------------------------------------------------------------|
|---------------------------------------------------------------------|
|---------------------------------------------------------------------|
|-2222222222222222-2222222222222222-1111111111111111-2222222222222222-|
  ................ ................ ................ ................



 Verse Riff 1 (2x) (Acoustic Gtr.)
|---------------------------------|
|*---------0-(0)----------3-(3)--*|
|--------0--------------0---------|
|------2--------------2-----------|
|*---2--------------2------------*|
|--0--------------0---------------|



 Verse Riff 2
|-------------------------------------------------------|
|-------------------------------------------------------|
|-----7\--9-----10\--9------7\--9\-10\------------------|
|-----5\--7------8\--7------5\--7\--8\------------------|
|-------------------------------------------------------|
|-0-0--------0-0--------0-0-------------0-0-0-0-0-0-0-0-|
  . .        . .        . .             . . . . . . . .


|---------------------------------------------------|
|---------------------------------------------------|
|-7\--9-----10\--9------7\--9\-10\------------------|
|-5\--7------8\--7------5\--7\--8\------------------|
|---------------------------------------------------|
|--------0-0--------0-0-------------0-0-0-0-0-0-0-0-|
         . .        . .             . . . . . . . .



 Chorus Riff
|---------------------------------------------------|
|---------------------------------------------------|
|-7\--9-----10\--9------7\--9\-10\------------------|
|-5\--7------8\--7------5\--7\--8\------------------|
|---------------------------------------------------|
|--------0-0--------0-0-------------0-0-0-0-0-0-0-0-|
         . .        . .             . . . . . . . .


|---------------------------------------------------|
|---------------------------------------------------|
|-7\--9-----10\--9------7\--9\-10\------------------|
|-5\--7------8\--7------5\--7\--8\------------------|
|---------------------------------------------------|
|--------0-0--------0-0-------------0-0-0-0-0-0-0-0-|
         . .        . .             . . . . . . . .


 Verse Riff 1 (2x)

 Verse Riff 2

 Chorus Riff


 Riff 3
|----------------------------------------------------|
|--------15fbr------17fbr------15fbr-----------------|
|----------------------------------------------------|
|-----------------------------------7755-------------|
|---------5----------7----------5-------77553322-----|
|-0-0-0-0-3--0-0-0-0-5--0-0-0-0-3---------------5533-|
  . . . .    . . . .    . . . .     ................



 Solo
|---------------------------------------------------15~-15-15-14-12-12\10/12~-----|
|---------------------------13-12--13-12~--12-12h13-------------------------------|
|------------------------12---------------------------------------------------11~-|
|---------10-9~------/14----------------------------------------------------------|
|-7~-7-10--------7~---------------------------------------------------------------|
|---------------------------------------------------------------------------------|


|-----------------------------------|
|---8----7----5---------------------|
|-7----7----7----7-7--7--0--4~------|
|-------------------------------5~\-|
|-----------------------------------|
|-----------------------------------|



 Solo Riff (4x) (Acoustic Gtr.)    Then
|---------------------------------|-----------------|
|*---------0-(0)----------3-(3)--*|-----------------|
|--------0--------------0---------|-----------------|
|------2--------------2-----------|-----------------|
|*---2--------------2------------*|-----------------|
|--0--------------0---------------|-0-0-0-0-0-0-0-0-|
                                    . . . . . . . .



 Chorus Riff 2
|---------------------------------------------------|
|---------------------------------------------------|
|-7\--9-----10\--9------7\--9\-10\------------------|
|-5\--7------8\--7------5\--7\--8\------------------|
|---------------------------------------------------|
|--------0-0--------0-0-------------0-0-0-0-0-0-0-0-|
         . .        . .             . . . . . . . .


|----------------------------------------------------|
|----------------------------------------------------|
|-7\--9-----10\--9------7\--9\-10\-------------------|
|-5\--7------8\--7------5\--7\--8\-------------------|
|-----------------------------------7777777777777777-|
|--------0-0--------0-0------------------------------|
         . .        . .             ................



 Chorus Riff 3
|-------------------------------------------------|
|-------------------------------------------------|
|-7\--9-----10\--9------7\--9\-10\--7-7-----7-7\--|
|-5\--7------8\--7------5\--7\--8\--6-6-----6-6\--|
|-------------------------------------------------|
|--------0-0--------0-0-----------------0-0-------|
         . .        . .                 . .


|---------------------------------------------------|
|---------------------------------------------------|
|-7\--9-----10\--9------7\--9\-10\------------------|
|-5\--7------8\--7------5\--7\--8\------------------|
|---------------------------------------------------|
|--------0-0--------0-0-------------0-0-0-0-0-0-0-0-|
         . .        . .             . . . . . . . .



 Outro (Acoustic Gtr.)
|----------------|
|---------3-(3)--|
|-------0--------|
|-----2----------|
|---2------------|
|-0--------------|




  . = palm mute
  ~ = vibrato 
  h = hammer on
  / = slide up
  \ = slide down
fbr = full bend then release
(3) = ghost note
Добавлено: 02.04.2012
Другие материалы по этой песне:

Страница создана 28.03.2012
http://primanota.ru/grave-digger/heroes-of-this-time-chords.htm
Привет, Гость.
Предлагаем пройти революционный курс по гитаре.
Подарок от PrimaNota.Ru, забирай!