PrimaNota.ru - самый крупный в мире бесплатный архив песенных текстов, аккордов, табулатур и нот


Grave Digger - Rebellion - текст песни, таба, бас-таба, видео

Регистрация Запомнить меня
Войти через:  Facebook Google Twitter Vk Yandex Mail.ru

Grave Digger - Rebellion - текст песни, таба, бас-таба, видео

Печатать
Просмотров: 537
Title   Rebellion
Artist  Grave Digger
Album   Tunes Of War

tabbed by ShadowBlade_69
comments etc. ShadowBlade_69@yahoo.com


Notes:
------
Easy song, my first tab. Play with lots of mid. If you
tab the whole solo, mail it to me.

Legend: 
-------
h   hammer on
p   pull off
.   palm mute
~   vibrato 
b   bend
r   release bend
\   slide down
/   slide up 
-----------------------------------------------------


Intro (clean)
|----------------------------------------------------
|----------------------------------------------------
|----------------------------------------------------
|-----9-------9-------9-------9----------------------
|---7---7---7---7---7---7---7---7--------------------
|-0-------0-------0-------0--------------------------

Repeat 7 times
-----------------------------------------------------
-----------------------------------------------------
-----------------------------------------------------
----9---9---9---9---7---7---5---5--------------------
--7---7---7---7---5---5---3---3----------------------
-----------------------------------------------------
"The clans...

last time
-----------------------------------------------------
-------------------------0---------------------------
-------------------------0---------------------------
----9---9---9---9---7----5---------------------------
--7---7---7---7---5---5--3---------------------------
-----------------------------------------------------

----------------------------------------------------|
----------------------------------------------------|
----------------------------------------------------|
----------------------------------------------------|
--4--4--4--4----4--4--4--4----4--4--4--4----5--5----|
--2--2--2--2----2--2--2--2----2--2--2--2----3--3----|

Continued Intro
|----------------------------------------------------
|----------------------------------------------------
|----------------------------------------------------
|----------------------------------------------------
|---------------------------5-----4------------------
|-000000000000000000000000--3-0-0-2------------------
  ........................    . .

----------------------------------------------------|
----------------------------------------------------|
----------------------------------------------------|
----------------------------------------------------|
---------------------------4--4---------------------|
-000000000000000000000000--2--2---------------------|
 ........................    

Riff 1
|----------------------------------------------------
|----------------------------------------------------
|----------------------------------------------------
|----------------------------------------------------
|---------------------------5-----4/5----------------
|-000000000000000000000000--3-0-0-2/3----------------
  ........................    . .
"You must know...


----------------------------------------------------|
----------------------------------------------------|
----------------------------------------------------|
----------------------------------------------------|
---------------------------5-----5/4----------------|
-000000000000000000000000--3-0-0-3/2----------------|
 ........................    . .

Prechorus
|----------------------------------------------------
|----------------------------------------------------
|----------------------------------------------------
|----------------------------------------------------
|------4---5---7------4---5/7-3-4------4---5-7-------
|--0-0-2-0-3-0-5--0-0-2-0-3/5-5-2--0-0-2-0-3-5-------
   . .   .   .    . .   .          . .   .

----------------------------------------------------|
----------------------------------------------------|
----------------------------------------------------|
----------------------------------------------------|
--4--4--4--4----4--4--4--4--------------------------|
--2--2--2--2----2--2--2--2--------------------------|

Chorus
|----------------------------------------------------|
|----------------------------------------------------|
|----------------------------------------------------|
|--2--------7---5------------------------------------|
|--2--------5---3------------------------------------|
|--0-------------------------------------------------|
"The clans...


Riff 2
|----------------------------------------------------|
|----------------------------------------------------|
|----------------------------------------------------|
|---------------7--5---------------------------------|
|--------7~~~---5--3---------------------------------|
|--0--0----------------------------------------------|
   .  .  a.h.


Riff 3
|----------------------------------------------------|
|----------------------------------------------------|
|----------------------------------------------------|
|---------------7-----5------------------------------|
|---------------5-----3-----2------------------------|
|-0-0-0-0-0-0-0---0-0---0-0-0------------------------|
  . . . . . . .   . .   . .


and here's an idea of how the solo should be played
|----------------------------------------------------
|----------------------------------------------------
|-/9~-11-12-11-9-12-9--------------------------------
|-----------------------9~--9-9-9-------------9------
|---------------------------------12-10-10-12--------
|----------------------------------------------------

--------------------------------------------------------
---------------------11b12r11-10h12p10----10----ah---ah-
-/9~-9-11-12-12-11-9-------------------12----11-12-9-11-
--------------------------------------------------------
--------------------------------------------------------
--------------------------------------------------------
Добавлено: 26.05.2012
Другие материалы по этой песне:
  • Аккорды и текст

Страница создана 20.04.2012
http://primanota.ru/grave-digger/rebellion-chords.htm
Привет, Гость.
Предлагаем пройти революционный курс по гитаре.
Подарок от PrimaNota.Ru, забирай!