PrimaNota.ru - самый крупный в мире бесплатный архив песенных текстов, аккордов, табулатур и нот


Grateful Dead - Fire - таба, видео

Регистрация Запомнить меня
Войти через:  Facebook Google Twitter Vk Yandex Mail.ru

Grateful Dead - Fire - таба, видео

Печатать
Просмотров: 86
Artist: Arthur Brown
Song: Fire
Album: The Crazy World of Arthur Brown
Year: 1968
Tabbed by DoteStudios
Email is manbearpigisreal@gmail.com
http://www.arthurbrownmusic.com/

Keys
b = bend
r = release
\ = slide up neck 
/ = slide down neck
h = hammer-on
p = pull-off
~ = hold note
w = whammy bar
v = vibrato

“I am the god of hell fire and I bring you!”

“Fire, I'll take you to burn
Fire, I'll take you to learn”
E--------8-6-------|
B-6-6--9------9----|
G---------------8--| 4x
D------------------|
A------------------|
E------------------|

“I'll see you burn!”
E-------------------------------|
B-6--8--8-9--6-9-9-8--6~~-------|
G--------------------------8~~--|
D-------------------------------|
A-------------------------------|
E-------------------------------|

“You fought hard and you saved and learned,
but all of it's going to burn
And your mind, your tiny mind,
you know you've really been so blind
Now 's your time burn your mind
You're falling far too far behind”
E-------------------------|
B-------------6-----6-----|
G-8-6-6-8-6-6---8-8---8-8-| 4x
D-------------------------|
A-------------------------|
E-------------------------|

“Oh no, oh no, oh no, you gonna burn!”

“Fire, to destroy all you've done.
Fire, to end all you've become.”
E--------8-6-------|
B-6-6--9------9----|
G---------------8--| 4x
D------------------|
A------------------|
E------------------|

“I'll feel you burn!”
E-------------------------------|
B-6--8--8-9--6-9-9-8--6~~-------|
G--------------------------8~~--|
D-------------------------------|
A-------------------------------|
E-------------------------------|

“You've been living like a little girl,
in the middle of your little world.”

“And your mind, your tiny mind,
you know you've really been so blind.
Now 's your time burn your mind.
You're falling far too far behind.”
E-------------------------|
B-------------6-----6-----|
G-8-6-6-8-6-6---8-8---8-8-| 4x
D-------------------------|
A-------------------------|
E-------------------------|

“Fire, I'll take you to burn
Fire, I'll take you to learn”
E--------8-6-------|
B-6-6--9------9----|
G---------------8--| 4x
D------------------|
A------------------|
E------------------|

“You're gonna burn
You're gonna burn
Burn, burn, burn, burn, burn, burn, burn, burn, burn!”
E-----------------------------------------------------------|
B-5--6--5--6--7--8--9--10--11--12--13--14--15--16--17--18~~-|
G-----------------------------------------------------------|
D-----------------------------------------------------------|
A-----------------------------------------------------------|
E-----------------------------------------------------------|

“Fire, I'll take you to burn
Fire, I'll take you to learn
Fire, I'll take you to burn
Fire, Fire”
E--------8-6-------|
B-6-6--9------9----|
G---------------8--| 8x
D------------------|
A------------------|
E------------------|
Добавлено: 10.11.2013
Другие материалы по этой песне:
  • Аккорды и текст

Страница создана 10.11.2013
http://primanota.ru/grateful-dead/fire-chords.htm
Привет, Гость.
Предлагаем пройти революционный курс по гитаре.
Подарок от PrimaNota.Ru, забирай!