PrimaNota.ru - самый крупный в мире бесплатный архив песенных текстов, аккордов, табулатур и нот


Grateful Dead - Help On The Way/slipknot/franklins Tower - таба, видео

Регистрация Запомнить меня
Войти через:  Facebook Google Twitter Vk Yandex Mail.ru

Grateful Dead - Help On The Way/slipknot/franklins Tower - таба, видео

Печатать
Просмотров: 97
The song is in the key of F minor

           Intro
Fm
E|8-8--8---|8-8--8-----|-----------|
B|9-9--9---|9-9--9-----|----1------|   
G|1010-10--|1010-10----|---1-1-----|      
D|---------|-----------|1-3---3----| -this last part is played at the end of each phrase
A|---------|-----------|-----------|
E|---------|-----------|-----------|

                           Verse
Fm
Paradise waits    on the crest of a wave her angel's in flame
               E|-----10--10--10--8-8-8----------8--|
               B|-----8---8---8---8-8-8-------8--9--|
               G|-----8---8---8---8-8-8-------8--10-|
               D|10---10--10--10--101010--10--10----|
               A|-----------------------------------|
               E|-----------------------------------|

Chorus (or something)
                                                        Fm
E|---------------------------------------------------|-8-8--8-8--8-|
B|---------------------------------------8----8------|-9-9--9-9--9-|
G|-10--8--7----5-7-8--10--8--7---8--7--5---10---10--8|-1010-1010-10|
D|---------------------------------------------------|-------------|
A|---------------------------------------------------|-------------|
E|---------------------------------------------------|-------------|

          That is pretty much the whole song.Now here's 'Slipknot'

  Repeat the intro afew times
E|-8-8--8-|                    E|----------------------8-------|
B|-9-9--9-|                    B|-------------------11--10-----|
G|10-10-10|                    G|---------------8-10-------11-8|
D|--------|                    D|-----10-8----10---------------|
A|--------|                    A|-8-11-------------------------|
E|--------|                    E|------------------------------|


E|---------------------------------------|-----------------------------------|
B|---------------------------------------|-----------------------------------|
G|---------------------------------------|-----------------------------------|
D|--------12-10--------12-10-------------|-------12-10------12-10------------|
A|-10--13-------10--13--------------12-10|-10--13-----10--13------------12-10|
E|----------------------------10--13-----|-----------------------10--13------|




E|------------------------10----------|-----------16-14-----15-13---------------------|
B|---------------------13---12--------|--------16-----16-14-----15-12-10\8-8\6-6\5----|
G|----------------10-12-------13-13-10|---13-15---------------------------------------|
D|-------12-10--12--------------------|-15-------------------------------------------7|
A|-10-13------------------------------|----------------------------------------------7|
E|------------------------------------|----------------------------------------------5|

 
                
   Trill  Now it's in the key of A minor
E|------------|--------------------------------------------------|
B|------------|--------------------------------------------------|
G|------------|-----9-7-----9-7--------------9-7------9-7--------|
D|-5-7-5-7-5-7|-7-10----7-10--------9-7--7-10----7-10---------9-7|
A|------------|-----------------7-10----------------------7-10---|
E|------------|--------------------------------------------------|


                                          After this is a solo in the A minor scale
E|---------------------------------------------------|
B|---------------------------------------------------|
G|-------9-7----9-7--------------9-7------9-7-----9-7|
D|---7-10---7-10--------9-7--7-10-----7-10----7-10---|
A|-0----------------7-10-----------------------------|
E|---------------------------------------------------|



E|---------------------------------------------------|Repeat four times
B|---------------------------------------------------|
G|-----9-7----9-7-------------9-7-----9-7------------|
D|7-10----7-10-------9-7--7-10----7-10--------9-7----|
A|---------------7-10--------------------7-10--------|
E|---------------------------------------------------|



E|-------------------------------------------------------|
B|-------------------------------------------------------|
G|----9-7----9-7---------------9-7----9-7-------------9-7|
D|7-10---7-10---------9-7--7-10---7-10-------9-7--7-10---|
A|----------------7-10-------------------7-10------------|
E|-------------------------------------------------------|



E|---------10-------------|----------12-------------|----------16-14-----15-13-----|
B|-------13--12-12--------|--------15--14-14--------|--------16-----16-14-----15-12|
G|--10-12---------13-13-10|---12-14---------15-15-12|---13-15----------------------|
D|12----------------------|-14----------------------|-15---------------------------|
A|------------------------|-------------------------|------------------------------|
E|------------------------|-------------------------|------------------------------|



E|----------------------------|
B|-10\8-8\6-6\5----------5----|Repaeat 4 times
G|------------------7------7-6|
D|---------------7------------|
A|---------------7------------|
E|---------------5------------|



                Okay thats 'Slipknot' here's 'Franklin's Tower'



E|-------------------5-5-5---------|
B|-5-5-5----3-3-3----7-7-7----3-3-3|
G|-6-6-6----4-4-4----7-7-7----4-4-4|
D|-7-7-7----5-5-5----7-7-7----5-5-5|Repeat this for the whole song!!!
A|---------------------------------|
E|---------------------------------|


Ok thats it.Enjoy!
Добавлено: 13.11.2013
Другие материалы по этой песне:
  • Аккорды и текст

Страница создана 13.11.2013
http://primanota.ru/grateful-dead/help-on-the-way-slipknot-franklins-tower-chords.htm
Привет, Гость.
Предлагаем пройти революционный курс по гитаре.
Подарок от PrimaNota.Ru, забирай!